  0
SECTION
  2
HEADER
  9
$ACADVER
  1
AC1018
  9
$ACADMAINTVER
 70
     0
  9
$DWGCODEPAGE
  3
ANSI_1252
  9
$COMMENTS
  1
File was created by Mastercam X9
  9
$INSBASE
 10
0.0
 20
0.0
 30
0.0
  9
$EXTMIN
 10
-9.250000000000014
 20
-5.499999999999915
 30
0.0
  9
$EXTMAX
 10
9.25
 20
5.500000000000085
 30
0.0
  9
$LIMMIN
 10
0.0
 20
0.0
  9
$LIMMAX
 10
12.0
 20
9.0
  9
$ORTHOMODE
 70
     0
  9
$REGENMODE
 70
     1
  9
$FILLMODE
 70
     1
  9
$QTEXTMODE
 70
     0
  9
$MIRRTEXT
 70
     1
  9
$LTSCALE
 40
1.0
  9
$ATTMODE
 70
     1
  9
$TEXTSIZE
 40
0.2
  9
$TRACEWID
 40
0.05
  9
$TEXTSTYLE
  7
Standard
  9
$CLAYER
  8
0
  9
$CELTYPE
  6
ByLayer
  9
$CECOLOR
 62
   256
  9
$CELTSCALE
 40
1.0
  9
$DISPSILH
 70
     0
  9
$DIMSCALE
 40
1.0
  9
$DIMASZ
 40
0.18
  9
$DIMEXO
 40
0.0625
  9
$DIMDLI
 40
0.38
  9
$DIMRND
 40
0.0
  9
$DIMDLE
 40
0.0
  9
$DIMEXE
 40
0.18
  9
$DIMTP
 40
0.0
  9
$DIMTM
 40
0.0
  9
$DIMTXT
 40
0.18
  9
$DIMCEN
 40
0.09
  9
$DIMTSZ
 40
0.0
  9
$DIMTOL
 70
     0
  9
$DIMLIM
 70
     0
  9
$DIMTIH
 70
     1
  9
$DIMTOH
 70
     1
  9
$DIMSE1
 70
     0
  9
$DIMSE2
 70
     0
  9
$DIMTAD
 70
     0
  9
$DIMZIN
 70
     0
  9
$DIMBLK
  1

  9
$DIMASO
 70
     1
  9
$DIMSHO
 70
     1
  9
$DIMPOST
  1

  9
$DIMAPOST
  1

  9
$DIMALT
 70
     0
  9
$DIMALTD
 70
     2
  9
$DIMALTF
 40
25.4
  9
$DIMLFAC
 40
1.0
  9
$DIMTOFL
 70
     0
  9
$DIMTVP
 40
0.0
  9
$DIMTIX
 70
     0
  9
$DIMSOXD
 70
     0
  9
$DIMSAH
 70
     0
  9
$DIMBLK1
  1

  9
$DIMBLK2
  1

  9
$DIMSTYLE
  2
Standard
  9
$DIMCLRD
 70
     0
  9
$DIMCLRE
 70
     0
  9
$DIMCLRT
 70
     0
  9
$DIMTFAC
 40
1.0
  9
$DIMGAP
 40
0.09
  9
$DIMJUST
 70
     0
  9
$DIMSD1
 70
     0
  9
$DIMSD2
 70
     0
  9
$DIMTOLJ
 70
     1
  9
$DIMTZIN
 70
     0
  9
$DIMALTZ
 70
     0
  9
$DIMALTTZ
 70
     0
  9
$DIMUPT
 70
     0
  9
$DIMDEC
 70
     4
  9
$DIMTDEC
 70
     4
  9
$DIMALTU
 70
     2
  9
$DIMALTTD
 70
     2
  9
$DIMTXSTY
  7
Standard
  9
$DIMAUNIT
 70
     0
  9
$DIMADEC
 70
     0
  9
$DIMALTRND
 40
0.0
  9
$DIMAZIN
 70
     0
  9
$DIMDSEP
 70
    46
  9
$DIMATFIT
 70
     3
  9
$DIMFRAC
 70
     0
  9
$DIMLDRBLK
  1

  9
$DIMLUNIT
 70
     2
  9
$DIMLWD
 70
    -2
  9
$DIMLWE
 70
    -2
  9
$DIMTMOVE
 70
     0
  9
$LUNITS
 70
     2
  9
$LUPREC
 70
     4
  9
$SKETCHINC
 40
0.1
  9
$FILLETRAD
 40
0.5
  9
$AUNITS
 70
     0
  9
$AUPREC
 70
     0
  9
$MENU
  1
.
  9
$ELEVATION
 40
0.0
  9
$PELEVATION
 40
0.0
  9
$THICKNESS
 40
0.0
  9
$LIMCHECK
 70
     0
  9
$CHAMFERA
 40
0.0
  9
$CHAMFERB
 40
0.0
  9
$CHAMFERC
 40
0.0
  9
$CHAMFERD
 40
0.0
  9
$SKPOLY
 70
     0
  9
$TDCREATE
 40
2453737.5
  9
$TDUCREATE
 40
2453737.708333333
  9
$TDUPDATE
 40
2457610.624229132
  9
$TDUUPDATE
 40
2457610.832562465
  9
$TDINDWG
 40
0.0000000116
  9
$TDUSRTIMER
 40
0.0000000116
  9
$USRTIMER
 70
     1
  9
$ANGBASE
 50
0.0
  9
$ANGDIR
 70
     0
  9
$PDMODE
 70
     2
  9
$PDSIZE
 40
0.1
  9
$PLINEWID
 40
0.0
  9
$SPLFRAME
 70
     0
  9
$SPLINETYPE
 70
     6
  9
$SPLINESEGS
 70
     8
  9
$HANDSEED
  5
22F
  9
$SURFTAB1
 70
     6
  9
$SURFTAB2
 70
     6
  9
$SURFTYPE
 70
     6
  9
$SURFU
 70
     6
  9
$SURFV
 70
     6
  9
$UCSBASE
  2

  9
$UCSNAME
  2

  9
$UCSORG
 10
0.0
 20
0.0
 30
0.0
  9
$UCSXDIR
 10
1.0
 20
0.0
 30
0.0
  9
$UCSYDIR
 10
0.0
 20
1.0
 30
0.0
  9
$UCSORTHOREF
  2

  9
$UCSORTHOVIEW
 70
     0
  9
$UCSORGTOP
 10
0.0
 20
0.0
 30
0.0
  9
$UCSORGBOTTOM
 10
0.0
 20
0.0
 30
0.0
  9
$UCSORGLEFT
 10
0.0
 20
0.0
 30
0.0
  9
$UCSORGRIGHT
 10
0.0
 20
0.0
 30
0.0
  9
$UCSORGFRONT
 10
0.0
 20
0.0
 30
0.0
  9
$UCSORGBACK
 10
0.0
 20
0.0
 30
0.0
  9
$PUCSBASE
  2

  9
$PUCSNAME
  2

  9
$PUCSORG
 10
0.0
 20
0.0
 30
0.0
  9
$PUCSXDIR
 10
1.0
 20
0.0
 30
0.0
  9
$PUCSYDIR
 10
0.0
 20
1.0
 30
0.0
  9
$PUCSORTHOREF
  2

  9
$PUCSORTHOVIEW
 70
     0
  9
$PUCSORGTOP
 10
0.0
 20
0.0
 30
0.0
  9
$PUCSORGBOTTOM
 10
0.0
 20
0.0
 30
0.0
  9
$PUCSORGLEFT
 10
0.0
 20
0.0
 30
0.0
  9
$PUCSORGRIGHT
 10
0.0
 20
0.0
 30
0.0
  9
$PUCSORGFRONT
 10
0.0
 20
0.0
 30
0.0
  9
$PUCSORGBACK
 10
0.0
 20
0.0
 30
0.0
  9
$USERI1
 70
     0
  9
$USERI2
 70
     0
  9
$USERI3
 70
     0
  9
$USERI4
 70
     0
  9
$USERI5
 70
     0
  9
$USERR1
 40
0.0
  9
$USERR2
 40
0.0
  9
$USERR3
 40
0.0
  9
$USERR4
 40
0.0
  9
$USERR5
 40
0.0
  9
$WORLDVIEW
 70
     1
  9
$SHADEDGE
 70
     3
  9
$SHADEDIF
 70
    70
  9
$TILEMODE
 70
     1
  9
$MAXACTVP
 70
    64
  9
$PINSBASE
 10
0.0
 20
0.0
 30
0.0
  9
$PLIMCHECK
 70
     0
  9
$PEXTMIN
 10
0.0
 20
0.0
 30
0.0
  9
$PEXTMAX
 10
0.0
 20
0.0
 30
0.0
  9
$PLIMMIN
 10
-0.25
 20
-0.25
  9
$PLIMMAX
 10
10.75
 20
8.25
  9
$UNITMODE
 70
     0
  9
$VISRETAIN
 70
     1
  9
$PLINEGEN
 70
     0
  9
$PSLTSCALE
 70
     1
  9
$TREEDEPTH
 70
  3020
  9
$CMLSTYLE
  2
Standard
  9
$CMLJUST
 70
     0
  9
$CMLSCALE
 40
1.0
  9
$PROXYGRAPHICS
 70
     1
  9
$MEASUREMENT
 70
     0
  9
$CELWEIGHT
370
    -1
  9
$ENDCAPS
280
     0
  9
$JOINSTYLE
280
     0
  9
$LWDISPLAY
290
     0
  9
$INSUNITS
 70
     1
  9
$HYPERLINKBASE
  1

  9
$STYLESHEET
  1

  9
$XEDIT
290
     1
  9
$CEPSNTYPE
380
     0
  9
$PSTYLEMODE
290
     1
  9
$FINGERPRINTGUID
  2
{AA1F16AE-E910-4D8E-9AB4-BCCBEDA871E7}
  9
$VERSIONGUID
  2
{FAEB1C32-E019-11D5-929B-00C0DF256EC4}
  9
$EXTNAMES
290
     1
  9
$PSVPSCALE
 40
0.0
  9
$OLESTARTUP
290
     0
  9
$SORTENTS
280
   127
  9
$INDEXCTL
280
     0
  9
$HIDETEXT
280
     1
  9
$XCLIPFRAME
290
     0
  9
$HALOGAP
280
     0
  9
$OBSCOLOR
 70
   257
  9
$OBSLTYPE
280
     0
  9
$INTERSECTIONDISPLAY
280
     0
  9
$INTERSECTIONCOLOR
 70
   257
  9
$DIMASSOC
280
     2
  9
$PROJECTNAME
  1

  0
ENDSEC
  0
SECTION
  2
CLASSES
  0
CLASS
  1
ACDBDICTIONARYWDFLT
  2
AcDbDictionaryWithDefault
  3
ObjectDBX Classes
 90
        0
 91
        4
280
     0
281
     0
  0
CLASS
  1
VISUALSTYLE
  2
AcDbVisualStyle
  3
ObjectDBX Classes
 90
     4095
 91
        4
280
     0
281
     0
  0
CLASS
  1
MATERIAL
  2
AcDbMaterial
  3
ObjectDBX Classes
 90
     1153
 91
        4
280
     0
281
     0
  0
CLASS
  1
SCALE
  2
AcDbScale
  3
ObjectDBX Classes
 90
     1153
 91
        4
280
     0
281
     0
  0
CLASS
  1
TABLESTYLE
  2
AcDbTableStyle
  3
ObjectDBX Classes
 90
     4095
 91
        4
280
     0
281
     0
  0
CLASS
  1
MLEADERSTYLE
  2
AcDbMLeaderStyle
  3
ACDB_MLEADERSTYLE_CLASS
 90
     4095
 91
        4
280
     0
281
     0
  0
CLASS
  1
SUN
  2
AcDbSun
  3
SCENEOE
 90
     1153
 91
        4
280
     0
281
     0
  0
CLASS
  1
DICTIONARYVAR
  2
AcDbDictionaryVar
  3
ObjectDBX Classes
 90
        0
 91
        4
280
     0
281
     0
  0
CLASS
  1
CELLSTYLEMAP
  2
AcDbCellStyleMap
  3
ObjectDBX Classes
 90
     1152
 91
        4
280
     0
281
     0
  0
ENDSEC
  0
SECTION
  2
TABLES
  0
TABLE
  2
VPORT
  5
8
102
{ACAD_XDICTIONARY
360
1E8
102
}
330
0
100
AcDbSymbolTable
 70
     1
  0
VPORT
  5
29
330
8
100
AcDbSymbolTableRecord
100
AcDbViewportTableRecord
  2
*Active
 70
     0
 10
0.0
 20
0.0
 11
1.0
 21
1.0
 12
10.42990654205607
 22
4.5
 13
0.0
 23
0.0
 14
0.5
 24
0.5
 15
0.5
 25
0.5
 16
0.0
 26
0.0
 36
1.0
 17
0.0
 27
0.0
 37
0.0
 40
9.0
 41
1.972972972850329
 42
50.0
 43
0.0
 44
0.0
 50
0.0
 51
0.0
 71
     0
 72
   100
 73
     1
 74
     3
 75
     0
 76
     0
 77
     0
 78
     0
281
     0
 65
     1
110
0.0
120
0.0
130
0.0
111
1.0
121
0.0
131
0.0
112
0.0
122
1.0
132
0.0
 79
     0
146
0.0
  0
ENDTAB
  0
TABLE
  2
LTYPE
  5
5
330
0
100
AcDbSymbolTable
 70
     5
  0
LTYPE
  5
14
330
5
100
AcDbSymbolTableRecord
100
AcDbLinetypeTableRecord
  2
ByBlock
 70
     0
  3

 72
    65
 73
     0
 40
0.0
  0
LTYPE
  5
15
330
5
100
AcDbSymbolTableRecord
100
AcDbLinetypeTableRecord
  2
ByLayer
 70
     0
  3

 72
    65
 73
     0
 40
0.0
  0
LTYPE
  5
16
330
5
100
AcDbSymbolTableRecord
100
AcDbLinetypeTableRecord
  2
Continuous
 70
     0
  3
Solid line
 72
    65
 73
     0
 40
0.0
  0
LTYPE
  5
6F
330
5
100
AcDbSymbolTableRecord
100
AcDbLinetypeTableRecord
  2
Continuous2
 70
     0
  3
Solid Line
 72
    65
 73
     0
 40
0.0
  0
LTYPE
  5
70
330
5
100
AcDbSymbolTableRecord
100
AcDbLinetypeTableRecord
  2
DASHED
 70
     0
  3
__ __ __ __ __ __ __ __ __ __ __ __ __ __ __ __
 72
    83
 73
     2
 40
0.5
 49
0.375
 74
     0
 49
-0.125
 74
     0
  0
LTYPE
  5
71
330
5
100
AcDbSymbolTableRecord
100
AcDbLinetypeTableRecord
  2
CENTER
 70
     0
  3
____ _ ____ _ ____ _ ____ _ ____ _ ____ _ ____ _
 72
    83
 73
     4
 40
1.0
 49
0.625
 74
     0
 49
-0.125
 74
     0
 49
0.125
 74
     0
 49
-0.125
 74
     0
  0
LTYPE
  5
72
330
5
100
AcDbSymbolTableRecord
100
AcDbLinetypeTableRecord
  2
PHANTOM
 70
     0
  3
___ _ _ ___ _ _ ___ _ _ ___ _ _ ___ _ _ ___ _ _ 
 72
    83
 73
     6
 40
1.0
 49
0.5
 74
     0
 49
-0.1
 74
     0
 49
0.1
 74
     0
 49
-0.1
 74
     0
 49
0.1
 74
     0
 49
-0.1
 74
     0
  0
ENDTAB
  0
TABLE
  2
LAYER
  5
2
330
0
100
AcDbSymbolTable
 70
     2
  0
LAYER
  5
10
330
2
100
AcDbSymbolTableRecord
100
AcDbLayerTableRecord
  2
0
 70
     0
 62
     7
  6
Continuous
370
    -3
390
F
  0
LAYER
  5
73
330
2
100
AcDbSymbolTableRecord
100
AcDbLayerTableRecord
  2
Unnamed Level 1
 70
     0
 62
     1
  6
Continuous
370
    -3
390
F
  0
ENDTAB
  0
TABLE
  2
STYLE
  5
3
330
0
100
AcDbSymbolTable
 70
     4
  0
STYLE
  5
11
330
3
100
AcDbSymbolTableRecord
100
AcDbTextStyleTableRecord
  2
Standard
 70
     0
 40
0.0
 41
1.0
 50
0.0
 71
     0
 42
0.2
  3
txt
  4

  0
STYLE
  5
B8
330
3
100
AcDbSymbolTableRecord
100
AcDbTextStyleTableRecord
  2
MCStick_A0.500000_S0.000000
 70
     0
 40
0.0
 41
0.5
 50
0.0
 71
     0
 42
0.2
  3
Simplex
  4

  0
STYLE
  5
183
330
3
100
AcDbSymbolTableRecord
100
AcDbTextStyleTableRecord
  2
MCStick_A0.625000_S0.000000
 70
     0
 40
0.0
 41
0.625
 50
0.0
 71
     0
 42
0.2
  3
Simplex
  4

  0
STYLE
  5
18E
330
3
100
AcDbSymbolTableRecord
100
AcDbTextStyleTableRecord
  2
MCStick_A0.875000_S0.000000
 70
     0
 40
0.0
 41
0.875
 50
0.0
 71
     0
 42
0.2
  3
Simplex
  4

  0
ENDTAB
  0
TABLE
  2
VIEW
  5
6
330
0
100
AcDbSymbolTable
 70
     0
  0
ENDTAB
  0
TABLE
  2
UCS
  5
7
330
0
100
AcDbSymbolTable
 70
     0
  0
ENDTAB
  0
TABLE
  2
APPID
  5
9
330
0
100
AcDbSymbolTable
 70
     3
  0
APPID
  5
12
330
9
100
AcDbSymbolTableRecord
100
AcDbRegAppTableRecord
  2
ACAD
 70
     0
  0
APPID
  5
6E
330
9
100
AcDbSymbolTableRecord
100
AcDbRegAppTableRecord
  2
Mastercam X9
 70
     0
  0
APPID
  5
227
330
9
100
AcDbSymbolTableRecord
100
AcDbRegAppTableRecord
  2
ACAD_MLEADERVER
 70
     0
  0
ENDTAB
  0
TABLE
  2
DIMSTYLE
  5
A
330
0
100
AcDbSymbolTable
 70
     1
100
AcDbDimStyleTable
  0
DIMSTYLE
105
27
330
A
100
AcDbSymbolTableRecord
100
AcDbDimStyleTableRecord
  2
Standard
 70
     0
178
     0
340
11
  0
ENDTAB
  0
TABLE
  2
BLOCK_RECORD
  5
1
330
0
100
AcDbSymbolTable
 70
     2
  0
BLOCK_RECORD
  5
1F
330
1
100
AcDbSymbolTableRecord
100
AcDbBlockTableRecord
  2
*Model_Space
340
22
  0
BLOCK_RECORD
  5
23
330
1
100
AcDbSymbolTableRecord
100
AcDbBlockTableRecord
  2
*Paper_Space
340
26
  0
BLOCK_RECORD
  5
75
330
1
100
AcDbSymbolTableRecord
100
AcDbBlockTableRecord
  2
OdaMASTER TEMPLATE VER 19-61
340
0
  0
ENDTAB
  0
ENDSEC
  0
SECTION
  2
BLOCKS
  0
BLOCK
  5
20
330
1F
100
AcDbEntity
  8
0
100
AcDbBlockBegin
  2
*Model_Space
 70
     0
 10
0.0
 20
0.0
 30
0.0
  3
*Model_Space
  1

  0
ENDBLK
  5
21
330
1F
100
AcDbEntity
  8
0
100
AcDbBlockEnd
  0
BLOCK
  5
24
330
23
100
AcDbEntity
 67
     1
  8
0
100
AcDbBlockBegin
  2
*Paper_Space
 70
     0
 10
0.0
 20
0.0
 30
0.0
  3
*Paper_Space
  1

  0
ENDBLK
  5
25
330
23
100
AcDbEntity
 67
     1
  8
0
100
AcDbBlockEnd
  0
BLOCK
  5
76
330
75
100
AcDbEntity
  8
0
100
AcDbBlockBegin
  2
OdaMASTER TEMPLATE VER 19-61
 70
     0
 10
0.0
 20
0.0
 30
0.0
  3
OdaMASTER TEMPLATE VER 19-61
  1

  0
LINE
  5
78
330
75
100
AcDbEntity
  8
Unnamed Level 1
  6
Continuous2
 62
    18
420
        0
370
    -3
100
AcDbLine
 10
-0.75
 20
-5.499999999999915
 30
0.0
 11
-0.75
 21
5.500000000000085
 31
0.0
  0
LINE
  5
7A
330
75
100
AcDbEntity
  8
Unnamed Level 1
  6
Continuous2
 62
    18
420
        0
370
    -3
100
AcDbLine
 10
-9.25
 20
-5.499999999999915
 30
0.0
 11
-9.25
 21
5.500000000000085
 31
0.0
  0
LINE
  5
7C
330
75
100
AcDbEntity
  8
Unnamed Level 1
  6
Continuous2
 62
    18
420
        0
370
    -3
100
AcDbLine
 10
-9.250000000000014
 20
5.500000000000085
 30
0.0
 11
-0.75
 21
5.500000000000085
 31
0.0
  0
LINE
  5
7E
330
75
100
AcDbEntity
  8
Unnamed Level 1
  6
Continuous2
 62
    18
420
        0
370
    -3
100
AcDbLine
 10
-9.250000000000014
 20
-5.499999999999915
 30
0.0
 11
-0.75
 21
-5.499999999999915
 31
0.0
  0
LINE
  5
80
330
75
100
AcDbEntity
  8
Unnamed Level 1
  6
Continuous2
 62
   176
420
      128
370
    -3
100
AcDbLine
 10
-2.773864945570381
 20
-4.625002871901003
 30
0.0
 11
-1.124997243918017
 21
-4.625002871901003
 31
0.0
  0
LINE
  5
82
330
75
100
AcDbEntity
  8
Unnamed Level 1
  6
Continuous2
 62
   176
420
      128
370
    -3
100
AcDbLine
 10
-2.773864851057851
 20
-4.875002871901003
 30
0.0
 11
-1.124997243918017
 21
-4.875002871901003
 31
0.0
  0
TEXT
  5
184
330
75
100
AcDbEntity
  8
Unnamed Level 1
  6
Continuous2
 62
   176
420
      128
370
    -3
100
AcDbText
 10
-5.293898809523809
 20
-5.089285714285643
 30
0.0
 40
0.125
  1
Full Scale
 41
0.625
  7
MCStick_A0.625000_S0.000000
 72
     1
 11
-5.0
 21
-5.124999999999929
 31
0.0
100
AcDbText
 73
     1
  0
TEXT
  5
186
330
75
100
AcDbEntity
  8
Unnamed Level 1
  6
Continuous2
 62
   176
420
      128
370
    -3
100
AcDbText
 10
-2.773865804730121
 20
-4.339288586186718
 30
0.0
 40
0.125
  1
 RL
 41
0.625
  7
MCStick_A0.625000_S0.000000
 11
-2.773865804730121
 21
-4.375002871901003
 31
0.0
100
AcDbText
 73
     1
  0
TEXT
  5
188
330
75
100
AcDbEntity
  8
Unnamed Level 1
  6
Continuous2
 62
   176
420
      128
370
    -3
100
AcDbText
 10
-2.773865804730121
 20
-4.089288586186718
 30
0.0
 40
0.125
  1
 7/10/08
 41
0.625
  7
MCStick_A0.625000_S0.000000
 11
-2.773865804730121
 21
-4.125002871901003
 31
0.0
100
AcDbText
 73
     1
  0
TEXT
  5
18A
330
75
100
AcDbEntity
  8
Unnamed Level 1
  6
Continuous2
 62
   176
420
      128
370
    -3
100
AcDbText
 10
-2.77386486530304
 20
-5.089285714285643
 30
0.0
 40
0.125
  1
    of 
 41
0.625
  7
MCStick_A0.625000_S0.000000
 11
-2.77386486530304
 21
-5.124999999999929
 31
0.0
100
AcDbText
 73
     1
  0
TEXT
  5
18C
330
75
100
AcDbEntity
  8
Unnamed Level 1
  6
Continuous2
 62
   176
420
      128
370
    -3
100
AcDbText
 10
-5.228794642857143
 20
4.375000000000071
 30
0.0
 40
0.125
  1
PR4337
 41
0.625
  7
MCStick_A0.625000_S0.000000
 72
     1
 11
-5.0
 21
4.500000000000071
 31
0.0
100
AcDbText
 73
     3
  0
MTEXT
  5
18F
330
75
100
AcDbEntity
  8
Unnamed Level 1
  6
Continuous2
 62
   176
420
      128
370
    -3
100
AcDbMText
 10
-2.831310342736344
 20
-5.122009624017325
 30
0.0
 40
0.125
 41
1.756495098039216
 71
     7
 72
     1
  1
         Date:^M\P    Drawn By:^M\PApproved By:^M\PApproved By:^M\P         Page:
  7
MCStick_A0.875000_S0.000000
 73
     1
 44
0.75
  0
ENDBLK
  5
77
330
75
100
AcDbEntity
  8
0
100
AcDbBlockEnd
  0
ENDSEC
  0
SECTION
  2
ENTITIES
  0
LINE
  5
74
330
1F
100
AcDbEntity
  8
Unnamed Level 1
  6
Continuous2
 62
    18
420
        0
370
    -3
100
AcDbLine
 10
-0.75
 20
-5.499999999999915
 30
0.0
 11
-0.75
 21
5.500000000000085
 31
0.0
  0
LINE
  5
79
330
1F
100
AcDbEntity
  8
Unnamed Level 1
  6
Continuous2
 62
    18
420
        0
370
    -3
100
AcDbLine
 10
-9.25
 20
-5.499999999999915
 30
0.0
 11
-9.25
 21
5.500000000000085
 31
0.0
  0
LINE
  5
7B
330
1F
100
AcDbEntity
  8
Unnamed Level 1
  6
Continuous2
 62
    18
420
        0
370
    -3
100
AcDbLine
 10
-9.250000000000014
 20
5.500000000000085
 30
0.0
 11
-0.75
 21
5.500000000000085
 31
0.0
  0
LINE
  5
7D
330
1F
100
AcDbEntity
  8
Unnamed Level 1
  6
Continuous2
 62
    18
420
        0
370
    -3
100
AcDbLine
 10
-9.250000000000014
 20
-5.499999999999915
 30
0.0
 11
-0.75
 21
-5.499999999999915
 31
0.0
  0
LINE
  5
7F
330
1F
100
AcDbEntity
  8
Unnamed Level 1
  6
Continuous2
 62
   176
420
      128
370
    -3
100
AcDbLine
 10
-2.773864945570381
 20
-4.625002871901003
 30
0.0
 11
-1.124997243918017
 21
-4.625002871901003
 31
0.0
  0
LINE
  5
81
330
1F
100
AcDbEntity
  8
Unnamed Level 1
  6
Continuous2
 62
   176
420
      128
370
    -3
100
AcDbLine
 10
-2.773864851057851
 20
-4.875002871901003
 30
0.0
 11
-1.124997243918017
 21
-4.875002871901003
 31
0.0
  0
LINE
  5
83
330
1F
100
AcDbEntity
  8
Unnamed Level 1
  6
Continuous2
 62
    18
420
        0
 60
     1
370
    -3
100
AcDbLine
 10
9.25
 20
-5.499999999999915
 30
0.0
 11
9.25
 21
5.500000000000085
 31
0.0
  0
LINE
  5
84
330
1F
100
AcDbEntity
  8
Unnamed Level 1
  6
Continuous2
 62
    18
420
        0
 60
     1
370
    -3
100
AcDbLine
 10
0.75
 20
-5.499999999999915
 30
0.0
 11
0.75
 21
5.500000000000085
 31
0.0
  0
LINE
  5
85
330
1F
100
AcDbEntity
  8
Unnamed Level 1
  6
Continuous2
 62
    18
420
        0
 60
     1
370
    -3
100
AcDbLine
 10
0.7499999999999858
 20
5.500000000000085
 30
0.0
 11
9.25
 21
5.500000000000085
 31
0.0
  0
LINE
  5
86
330
1F
100
AcDbEntity
  8
Unnamed Level 1
  6
Continuous2
 62
    18
420
        0
 60
     1
370
    -3
100
AcDbLine
 10
0.7499999999999858
 20
-5.499999999999915
 30
0.0
 11
9.25
 21
-5.499999999999915
 31
0.0
  0
LINE
  5
87
330
1F
100
AcDbEntity
  8
Unnamed Level 1
  6
Continuous2
 62
   176
420
      128
 60
     1
370
    -3
100
AcDbLine
 10
7.226135054429619
 20
-4.625002871901003
 30
0.0
 11
8.875002756081983
 21
-4.625002871901003
 31
0.0
  0
LINE
  5
88
330
1F
100
AcDbEntity
  8
Unnamed Level 1
  6
Continuous2
 62
   176
420
      128
 60
     1
370
    -3
100
AcDbLine
 10
7.226135148942149
 20
-4.875002871901003
 30
0.0
 11
8.875002756081983
 21
-4.875002871901003
 31
0.0
  0
LINE
  5
89
330
1F
100
AcDbEntity
  8
Unnamed Level 1
  6
Continuous2
 62
    18
420
        0
 60
     1
370
    -3
100
AcDbLine
 10
5.267670244158126
 20
2.351484590377822
 30
0.0
 11
4.305957557144154
 21
2.351484590377822
 31
0.0
  0
LINE
  5
8A
330
1F
100
AcDbEntity
  8
Unnamed Level 1
  6
Continuous2
 62
    18
420
        0
 60
     1
370
    -3
100
AcDbLine
 10
4.529596330108632
 20
2.69133041248719
 30
0.0
 11
4.529596330108632
 21
2.56913406528713
 31
0.0
  0
ARC
  5
8B
330
1F
100
AcDbEntity
  8
Unnamed Level 1
  6
Continuous2
 62
    18
420
        0
 60
     1
370
    -3
100
AcDbCircle
 10
4.612591563254263
 20
2.169104976695962
 30
0.0
 40
0.4085480148574407
100
AcDbArc
 50
101.7210375660289
 51
129.8347714063659
  0
LINE
  5
8C
330
1F
100
AcDbEntity
  8
Unnamed Level 1
  6
Continuous2
 62
    18
420
        0
 60
     1
370
    -3
100
AcDbLine
 10
4.30595755714414
 20
2.386840055527927
 30
0.0
 11
4.305957557144154
 21
2.351484590377822
 31
0.0
  0
LINE
  5
8D
330
1F
100
AcDbEntity
  8
Unnamed Level 1
  6
Continuous2
 62
    18
420
        0
 60
     1
370
    -3
100
AcDbLine
 10
4.875031163330078
 20
2.618338198242185
 30
0.0
 11
5.267670323486328
 21
2.618338198242185
 31
0.0
  0
LINE
  5
8E
330
1F
100
AcDbEntity
  8
Unnamed Level 1
  6
Continuous2
 62
    18
420
        0
 60
     1
370
    -3
100
AcDbLine
 10
5.267670323486328
 20
2.351484865722654
 30
0.0
 11
5.267670323486328
 21
2.618338198242185
 31
0.0
  0
LINE
  5
8F
330
1F
100
AcDbEntity
  8
Unnamed Level 1
  6
Continuous2
 62
    18
420
        0
 60
     1
370
    -3
100
AcDbLine
 10
4.549306348347912
 20
2.706418498885654
 30
0.0
 11
4.875031163330078
 21
2.618338198242185
 31
0.0
  0
ARC
  5
90
330
1F
100
AcDbEntity
  8
Unnamed Level 1
  6
Continuous2
 62
    18
420
        0
 60
     1
370
    -3
100
AcDbCircle
 10
4.430957557144119
 20
2.386840055527912
 30
0.0
 40
0.1250000000000059
100
AcDbArc
 50
129.8347714063707
 51
179.9999999999935
  0
ARC
  5
91
330
1F
100
AcDbEntity
  8
Unnamed Level 1
  6
Continuous2
 62
    18
420
        0
 60
     1
370
    -3
100
AcDbCircle
 10
4.54522633010864
 20
2.691330412487176
 30
0.0
 40
0.0156300000000196
100
AcDbArc
 50
74.86835934846353
 51
179.9999999999479
  0
LINE
  5
92
330
1F
100
AcDbEntity
  8
Unnamed Level 1
  6
Continuous2
 62
    18
420
        0
 60
     1
370
    -3
100
AcDbLine
 10
4.2723058744659
 20
-0.5527440675353574
 30
0.0
 11
5.568701027799264
 21
-0.5527440675353859
 31
0.0
  0
LINE
  5
93
330
1F
100
AcDbEntity
  8
Unnamed Level 1
  6
Continuous2
 62
    18
420
        0
 60
     1
370
    -3
100
AcDbLine
 10
3.211998705050036
 20
-1.260048924789402
 30
0.0
 11
5.899771140441899
 21
-1.260048924789416
 31
0.0
  0
LINE
  5
94
330
1F
100
AcDbEntity
  8
Unnamed Level 1
  6
Continuous2
 62
    18
420
        0
 60
     1
370
    -3
100
AcDbLine
 10
3.375561876754759
 20
-0.1589305456717938
 30
0.0
 11
3.375561876754759
 21
-0.4089305456717938
 31
0.0
  0
ARC
  5
95
330
1F
100
AcDbEntity
  8
Unnamed Level 1
  6
Continuous2
 62
    18
420
        0
 60
     1
370
    -3
100
AcDbCircle
 10
3.892074235924611
 20
-0.5358442645095636
 30
0.0
 40
0.27733980872903
100
AcDbArc
 50
27.27442368923656
 51
69.27125032615288
  0
ARC
  5
96
330
1F
100
AcDbEntity
  8
Unnamed Level 1
  6
Continuous2
 62
    18
420
        0
 60
     1
370
    -3
100
AcDbCircle
 10
4.127620714047083
 20
-0.553022287565824
 30
0.0
 40
0.1446854279179711
100
AcDbArc
 50
0.1101758730888094
 51
85.65596476126024
  0
ARC
  5
97
330
1F
100
AcDbEntity
  8
Unnamed Level 1
  6
Continuous2
 62
    18
420
        0
 60
     1
370
    -3
100
AcDbCircle
 10
3.407962310407427
 20
-0.296611087559512
 30
0.0
 40
0.1414415770393403
100
AcDbArc
 50
103.242496240264
 51
174.9999994296286
  0
LINE
  5
98
330
1F
100
AcDbEntity
  8
Unnamed Level 1
  6
Continuous2
 62
    18
420
        0
 60
     1
370
    -3
100
AcDbLine
 10
3.267058961393815
 20
-0.284283640454575
 30
0.0
 11
3.263339692384776
 21
-0.326795074881872
 31
0.0
  0
LINE
  5
99
330
1F
100
AcDbEntity
  8
Unnamed Level 1
  6
Continuous2
 62
    18
420
        0
 60
     1
370
    -3
100
AcDbLine
 10
3.642415484619136
 20
-0.4089306249999964
 30
0.0
 11
3.642415484619136
 21
-0.0319263560469096
 31
0.0
  0
LINE
  5
9A
330
1F
100
AcDbEntity
  8
Unnamed Level 1
  6
Continuous2
 62
    18
420
        0
 60
     1
370
    -3
100
AcDbLine
 10
3.375562152099604
 20
-0.4089306249999964
 30
0.0
 11
3.642415484619136
 21
-0.4089306249999964
 31
0.0
  0
LINE
  5
9B
330
1F
100
AcDbEntity
  8
Unnamed Level 1
  6
Continuous2
 62
    18
420
        0
 60
     1
370
    -3
100
AcDbLine
 10
3.918860746246395
 20
-0.1850790672741596
 30
0.0
 11
3.642415484619136
 21
-0.0319263560469238
 31
0.0
  0
ARC
  5
9C
330
1F
100
AcDbEntity
  8
Unnamed Level 1
  6
Continuous2
 62
    18
420
        0
 60
     1
370
    -3
100
AcDbCircle
 10
3.847014555041071
 20
-0.3147636087068548
 30
0.0
 40
0.1482563842717084
100
AcDbArc
 50
14.9752812419229
 51
61.01322425219703
  0
LINE
  5
9D
330
1F
100
AcDbEntity
  8
Unnamed Level 1
  6
Continuous2
 62
    18
420
        0
 60
     1
370
    -3
100
AcDbLine
 10
3.117242982482907
 20
-0.6096392338713201
 30
0.0
 11
3.117242982482907
 21
-0.5348563374188728
 31
0.0
  0
ARC
  5
9E
330
1F
100
AcDbEntity
  8
Unnamed Level 1
  6
Continuous2
 62
    18
420
        0
 60
     1
370
    -3
100
AcDbCircle
 10
3.118248632049557
 20
-0.703383839950547
 30
0.0
 40
0.09375
100
AcDbArc
 50
90.61461952972958
 51
180.0000000000086
  0
ARC
  5
9F
330
1F
100
AcDbEntity
  8
Unnamed Level 1
  6
Continuous2
 62
    18
420
        0
 60
     1
370
    -3
100
AcDbCircle
 10
3.341011113428436
 20
-0.5366583014228183
 30
0.0
 40
0.2237753862718759
100
AcDbArc
 50
110.3097631408008
 51
179.5386174958294
  0
LINE
  5
A0
330
1F
100
AcDbEntity
  8
Unnamed Level 1
  6
Continuous2
 62
    18
420
        0
 60
     1
370
    -3
100
AcDbLine
 10
3.024498632049557
 20
-0.7033838399505612
 30
0.0
 11
3.024498632049557
 21
-1.072548924789416
 31
0.0
  0
ARC
  5
A1
330
1F
100
AcDbEntity
  8
Unnamed Level 1
  6
Continuous2
 62
    18
420
        0
 60
     1
370
    -3
100
AcDbCircle
 10
3.211998632049557
 20
-1.072548924789416
 30
0.0
 40
0.1875
100
AcDbArc
 50
180.0
 51
270.000022307303
  0
LINE
  5
A2
330
1F
100
AcDbEntity
  8
Unnamed Level 1
  6
Continuous2
 62
    18
420
        0
 60
     1
370
    -3
100
AcDbLine
 10
5.899771140441899
 20
-0.7720237144088742
 30
0.0
 11
6.274974997863765
 21
-0.77202371440886
 31
0.0
  0
LINE
  5
A3
330
1F
100
AcDbEntity
  8
Unnamed Level 1
  6
Continuous2
 62
    18
420
        0
 60
     1
370
    -3
100
AcDbLine
 10
6.274974997863765
 20
-0.6155810721969459
 30
0.0
 11
6.274974997863765
 21
-0.77202371440886
 31
0.0
  0
LINE
  5
A4
330
1F
100
AcDbEntity
  8
Unnamed Level 1
  6
Continuous2
 62
    18
420
        0
 60
     1
370
    -3
100
AcDbLine
 10
6.274974997863765
 20
-0.6155810721969459
 30
0.0
 11
6.172376082653756
 21
-0.6155810721969459
 31
0.0
  0
LINE
  5
A5
330
1F
100
AcDbEntity
  8
Unnamed Level 1
  6
Continuous2
 62
    18
420
        0
 60
     1
370
    -3
100
AcDbLine
 10
5.899771140441899
 20
-0.77202371440886
 30
0.0
 11
5.899771140441899
 21
-1.260048924789402
 31
0.0
  0
ARC
  5
A6
330
1F
100
AcDbEntity
  8
Unnamed Level 1
  6
Continuous2
 62
    18
420
        0
 60
     1
370
    -3
100
AcDbCircle
 10
5.568701027799271
 20
-0.4589940675352437
 30
0.0
 40
0.09375
100
AcDbArc
 50
269.9999999999956
 51
345.0883836190469
  0
ARC
  5
A7
330
1F
100
AcDbEntity
  8
Unnamed Level 1
  6
Continuous2
 62
    18
420
        0
 60
     1
370
    -3
100
AcDbCircle
 10
12.62420318229822
 20
-2.337849854062597
 30
0.0
 40
7.207634096094835
100
AcDbArc
 50
164.4042379386539
 51
165.0883836190469
  0
ARC
  5
A8
330
1F
100
AcDbEntity
  8
Unnamed Level 1
  6
Continuous2
 62
    18
420
        0
 60
     1
370
    -3
100
AcDbCircle
 10
5.844443365255621
 20
-0.4454474535235846
 30
0.0
 40
0.1687186951007811
100
AcDbArc
 50
111.3288026534897
 51
164.4042379386517
  0
ARC
  5
A9
330
1F
100
AcDbEntity
  8
Unnamed Level 1
  6
Continuous2
 62
    18
420
        0
 60
     1
370
    -3
100
AcDbCircle
 10
6.036946364210017
 20
-0.6214648780887586
 30
0.0
 40
0.1355574705042842
100
AcDbArc
 50
2.487676892759583
 51
26.29464532130846
  0
ARC
  5
AA
330
1F
100
AcDbEntity
  8
Unnamed Level 1
  6
Continuous2
 62
    18
420
        0
 60
     1
370
    -3
100
AcDbCircle
 10
6.048368182860237
 20
-0.6158211918328078
 30
0.0
 40
0.1228174102283653
100
AcDbArc
 50
26.29464532130832
 51
63.64684045990202
  0
ARC
  5
AB
330
1F
100
AcDbEntity
  8
Unnamed Level 1
  6
Continuous2
 62
    18
420
        0
 60
     1
370
    -3
100
AcDbCircle
 10
6.241606874839512
 20
-0.2257442051108711
 30
0.0
 40
0.3125
100
AcDbArc
 50
204.4233538437778
 51
243.6468223434634
  0
ARC
  5
AC
330
1F
100
AcDbEntity
  8
Unnamed Level 1
  6
Continuous2
 62
    18
420
        0
 60
     1
370
    -3
100
AcDbCircle
 10
5.833431986549037
 20
-0.4172466241041661
 30
0.0
 40
0.1384443290304027
100
AcDbArc
 50
26.73885687513605
 51
111.3288026534916
  0
LINE
  5
AD
330
1F
100
AcDbEntity
  8
Unnamed Level 1
  6
Continuous2
 62
    96
420
    32768
 60
     1
370
    -3
100
AcDbLine
 10
4.305957557144154
 20
1.989457256169203
 30
0.0
 11
4.305957557144154
 21
2.226484590377822
 31
0.0
  0
LINE
  5
AE
330
1F
100
AcDbEntity
  8
Unnamed Level 1
  6
Continuous2
 62
    96
420
    32768
 60
     1
370
    -3
100
AcDbLine
 10
4.337207557144154
 20
2.072769756169203
 30
0.0
 11
4.305957557144154
 21
2.051957256169203
 31
0.0
  0
LINE
  5
AF
330
1F
100
AcDbEntity
  8
Unnamed Level 1
  6
Continuous2
 62
    96
420
    32768
 60
     1
370
    -3
100
AcDbLine
 10
4.337207557144154
 20
2.031144756169203
 30
0.0
 11
4.305957557144154
 21
2.051957256169203
 31
0.0
  0
LINE
  5
B0
330
1F
100
AcDbEntity
  8
Unnamed Level 1
  6
Continuous2
 62
    96
420
    32768
 60
     1
370
    -3
100
AcDbLine
 10
5.236420244158126
 20
2.031144756169203
 30
0.0
 11
5.267670244158126
 21
2.051957256169203
 31
0.0
  0
LINE
  5
B1
330
1F
100
AcDbEntity
  8
Unnamed Level 1
  6
Continuous2
 62
    96
420
    32768
 60
     1
370
    -3
100
AcDbLine
 10
5.236420244158126
 20
2.072769756169203
 30
0.0
 11
5.267670244158126
 21
2.051957256169203
 31
0.0
  0
LINE
  5
B2
330
1F
100
AcDbEntity
  8
Unnamed Level 1
  6
Continuous2
 62
    96
420
    32768
 60
     1
370
    -3
100
AcDbLine
 10
4.463407037906045
 20
2.051957256169203
 30
0.0
 11
4.305957557144154
 21
2.051957256169203
 31
0.0
  0
LINE
  5
B3
330
1F
100
AcDbEntity
  8
Unnamed Level 1
  6
Continuous2
 62
    96
420
    32768
 60
     1
370
    -3
100
AcDbLine
 10
4.337207557144154
 20
2.072769756169203
 30
0.0
 11
4.305957557144154
 21
2.051957256169203
 31
0.0
  0
LINE
  5
B4
330
1F
100
AcDbEntity
  8
Unnamed Level 1
  6
Continuous2
 62
    96
420
    32768
 60
     1
370
    -3
100
AcDbLine
 10
4.337207557144154
 20
2.031144756169203
 30
0.0
 11
4.305957557144154
 21
2.051957256169203
 31
0.0
  0
LINE
  5
B5
330
1F
100
AcDbEntity
  8
Unnamed Level 1
  6
Continuous2
 62
    96
420
    32768
 60
     1
370
    -3
100
AcDbLine
 10
5.236420244158126
 20
2.031144756169203
 30
0.0
 11
5.267670244158126
 21
2.051957256169203
 31
0.0
  0
LINE
  5
B6
330
1F
100
AcDbEntity
  8
Unnamed Level 1
  6
Continuous2
 62
    96
420
    32768
 60
     1
370
    -3
100
AcDbLine
 10
5.236420244158126
 20
2.072769756169203
 30
0.0
 11
5.267670244158126
 21
2.051957256169203
 31
0.0
  0
TEXT
  5
B7
330
1F
100
AcDbEntity
  8
Unnamed Level 1
  6
Continuous2
 62
    96
420
    32768
 60
     1
370
    -3
100
AcDbText
 10
4.65102958692565
 20
1.989457256169203
 30
0.0
 40
0.125
  1
.962
 41
0.5
  7
MCStick_A0.500000_S0.000000
100
AcDbText
  0
LINE
  5
B9
330
1F
100
AcDbEntity
  8
Unnamed Level 1
  6
Continuous2
 62
    96
420
    32768
 60
     1
370
    -3
100
AcDbLine
 10
5.110220763396235
 20
2.051957256169203
 30
0.0
 11
5.267670244158126
 21
2.051957256169203
 31
0.0
  0
LINE
  5
BA
330
1F
100
AcDbEntity
  8
Unnamed Level 1
  6
Continuous2
 62
    96
420
    32768
 60
     1
370
    -3
100
AcDbLine
 10
4.337207557144154
 20
2.072769756169203
 30
0.0
 11
4.305957557144154
 21
2.051957256169203
 31
0.0
  0
LINE
  5
BB
330
1F
100
AcDbEntity
  8
Unnamed Level 1
  6
Continuous2
 62
    96
420
    32768
 60
     1
370
    -3
100
AcDbLine
 10
4.337207557144154
 20
2.031144756169203
 30
0.0
 11
4.305957557144154
 21
2.051957256169203
 31
0.0
  0
LINE
  5
BC
330
1F
100
AcDbEntity
  8
Unnamed Level 1
  6
Continuous2
 62
    96
420
    32768
 60
     1
370
    -3
100
AcDbLine
 10
5.236420244158126
 20
2.031144756169203
 30
0.0
 11
5.267670244158126
 21
2.051957256169203
 31
0.0
  0
LINE
  5
BD
330
1F
100
AcDbEntity
  8
Unnamed Level 1
  6
Continuous2
 62
    96
420
    32768
 60
     1
370
    -3
100
AcDbLine
 10
5.236420244158126
 20
2.072769756169203
 30
0.0
 11
5.267670244158126
 21
2.051957256169203
 31
0.0
  0
LINE
  5
BE
330
1F
100
AcDbEntity
  8
Unnamed Level 1
  6
Continuous2
 62
    96
420
    32768
 60
     1
370
    -3
100
AcDbLine
 10
5.267670244158126
 20
1.989457256169203
 30
0.0
 11
5.267670244158126
 21
2.226484590377822
 31
0.0
  0
LINE
  5
BF
330
1F
100
AcDbEntity
  8
Unnamed Level 1
  6
Continuous2
 62
    96
420
    32768
 60
     1
370
    -3
100
AcDbLine
 10
4.337207557144154
 20
2.072769756169203
 30
0.0
 11
4.305957557144154
 21
2.051957256169203
 31
0.0
  0
LINE
  5
C0
330
1F
100
AcDbEntity
  8
Unnamed Level 1
  6
Continuous2
 62
    96
420
    32768
 60
     1
370
    -3
100
AcDbLine
 10
4.337207557144154
 20
2.031144756169203
 30
0.0
 11
4.305957557144154
 21
2.051957256169203
 31
0.0
  0
LINE
  5
C1
330
1F
100
AcDbEntity
  8
Unnamed Level 1
  6
Continuous2
 62
    96
420
    32768
 60
     1
370
    -3
100
AcDbLine
 10
5.236420244158126
 20
2.031144756169203
 30
0.0
 11
5.267670244158126
 21
2.051957256169203
 31
0.0
  0
LINE
  5
C2
330
1F
100
AcDbEntity
  8
Unnamed Level 1
  6
Continuous2
 62
    96
420
    32768
 60
     1
370
    -3
100
AcDbLine
 10
5.236420244158126
 20
2.072769756169203
 30
0.0
 11
5.267670244158126
 21
2.051957256169203
 31
0.0
  0
LINE
  5
C3
330
1F
100
AcDbEntity
  8
Unnamed Level 1
  6
Continuous2
 62
    96
420
    32768
 60
     1
370
    -3
100
AcDbLine
 10
5.679401905304701
 20
2.351484865722654
 30
0.0
 11
5.392670323486328
 21
2.351484865722654
 31
0.0
  0
LINE
  5
C4
330
1F
100
AcDbEntity
  8
Unnamed Level 1
  6
Continuous2
 62
    96
420
    32768
 60
     1
370
    -3
100
AcDbLine
 10
5.596089405304758
 20
2.382734865722691
 30
0.0
 11
5.616901905304701
 21
2.351484865722654
 31
0.0
  0
LINE
  5
C5
330
1F
100
AcDbEntity
  8
Unnamed Level 1
  6
Continuous2
 62
    96
420
    32768
 60
     1
370
    -3
100
AcDbLine
 10
5.637714405304758
 20
2.382734865722616
 30
0.0
 11
5.616901905304701
 21
2.351484865722654
 31
0.0
  0
LINE
  5
C6
330
1F
100
AcDbEntity
  8
Unnamed Level 1
  6
Continuous2
 62
    96
420
    32768
 60
     1
370
    -3
100
AcDbLine
 10
5.637714405304758
 20
2.587088198242223
 30
0.0
 11
5.616901905304701
 21
2.618338198242185
 31
0.0
  0
LINE
  5
C7
330
1F
100
AcDbEntity
  8
Unnamed Level 1
  6
Continuous2
 62
    96
420
    32768
 60
     1
370
    -3
100
AcDbLine
 10
5.596089405304758
 20
2.587088198242147
 30
0.0
 11
5.616901905304701
 21
2.618338198242185
 31
0.0
  0
LINE
  5
C8
330
1F
100
AcDbEntity
  8
Unnamed Level 1
  6
Continuous2
 62
    96
420
    32768
 60
     1
370
    -3
100
AcDbLine
 10
5.616901905304701
 20
2.351734865722648
 30
0.0
 11
5.616901905304701
 21
2.351484865722654
 31
0.0
  0
LINE
  5
C9
330
1F
100
AcDbEntity
  8
Unnamed Level 1
  6
Continuous2
 62
    96
420
    32768
 60
     1
370
    -3
100
AcDbLine
 10
5.596089405304758
 20
2.382734865722691
 30
0.0
 11
5.616901905304701
 21
2.351484865722654
 31
0.0
  0
LINE
  5
CA
330
1F
100
AcDbEntity
  8
Unnamed Level 1
  6
Continuous2
 62
    96
420
    32768
 60
     1
370
    -3
100
AcDbLine
 10
5.637714405304758
 20
2.382734865722616
 30
0.0
 11
5.616901905304701
 21
2.351484865722654
 31
0.0
  0
LINE
  5
CB
330
1F
100
AcDbEntity
  8
Unnamed Level 1
  6
Continuous2
 62
    96
420
    32768
 60
     1
370
    -3
100
AcDbLine
 10
5.637714405304758
 20
2.587088198242223
 30
0.0
 11
5.616901905304701
 21
2.618338198242185
 31
0.0
  0
LINE
  5
CC
330
1F
100
AcDbEntity
  8
Unnamed Level 1
  6
Continuous2
 62
    96
420
    32768
 60
     1
370
    -3
100
AcDbLine
 10
5.596089405304758
 20
2.587088198242147
 30
0.0
 11
5.616901905304701
 21
2.618338198242185
 31
0.0
  0
TEXT
  5
CD
330
1F
100
AcDbEntity
  8
Unnamed Level 1
  6
Continuous2
 62
    96
420
    32768
 60
     1
370
    -3
100
AcDbText
 10
5.481117591579211
 20
2.422411531982419
 30
0.0
 40
0.125
  1
.267
 41
0.5
  7
MCStick_A0.500000_S0.000000
100
AcDbText
  0
LINE
  5
CE
330
1F
100
AcDbEntity
  8
Unnamed Level 1
  6
Continuous2
 62
    96
420
    32768
 60
     1
370
    -3
100
AcDbLine
 10
5.616901905304701
 20
2.618088198242191
 30
0.0
 11
5.616901905304701
 21
2.618338198242185
 31
0.0
  0
LINE
  5
CF
330
1F
100
AcDbEntity
  8
Unnamed Level 1
  6
Continuous2
 62
    96
420
    32768
 60
     1
370
    -3
100
AcDbLine
 10
5.596089405304758
 20
2.382734865722691
 30
0.0
 11
5.616901905304701
 21
2.351484865722654
 31
0.0
  0
LINE
  5
D0
330
1F
100
AcDbEntity
  8
Unnamed Level 1
  6
Continuous2
 62
    96
420
    32768
 60
     1
370
    -3
100
AcDbLine
 10
5.637714405304758
 20
2.382734865722616
 30
0.0
 11
5.616901905304701
 21
2.351484865722654
 31
0.0
  0
LINE
  5
D1
330
1F
100
AcDbEntity
  8
Unnamed Level 1
  6
Continuous2
 62
    96
420
    32768
 60
     1
370
    -3
100
AcDbLine
 10
5.637714405304758
 20
2.587088198242223
 30
0.0
 11
5.616901905304701
 21
2.618338198242185
 31
0.0
  0
LINE
  5
D2
330
1F
100
AcDbEntity
  8
Unnamed Level 1
  6
Continuous2
 62
    96
420
    32768
 60
     1
370
    -3
100
AcDbLine
 10
5.596089405304758
 20
2.587088198242147
 30
0.0
 11
5.616901905304701
 21
2.618338198242185
 31
0.0
  0
LINE
  5
D3
330
1F
100
AcDbEntity
  8
Unnamed Level 1
  6
Continuous2
 62
    96
420
    32768
 60
     1
370
    -3
100
AcDbLine
 10
5.679401905304701
 20
2.618338198242185
 30
0.0
 11
5.392670323486328
 21
2.618338198242185
 31
0.0
  0
LINE
  5
D4
330
1F
100
AcDbEntity
  8
Unnamed Level 1
  6
Continuous2
 62
    96
420
    32768
 60
     1
370
    -3
100
AcDbLine
 10
5.596089405304758
 20
2.382734865722691
 30
0.0
 11
5.616901905304701
 21
2.351484865722654
 31
0.0
  0
LINE
  5
D5
330
1F
100
AcDbEntity
  8
Unnamed Level 1
  6
Continuous2
 62
    96
420
    32768
 60
     1
370
    -3
100
AcDbLine
 10
5.637714405304758
 20
2.382734865722616
 30
0.0
 11
5.616901905304701
 21
2.351484865722654
 31
0.0
  0
LINE
  5
D6
330
1F
100
AcDbEntity
  8
Unnamed Level 1
  6
Continuous2
 62
    96
420
    32768
 60
     1
370
    -3
100
AcDbLine
 10
5.637714405304758
 20
2.587088198242223
 30
0.0
 11
5.616901905304701
 21
2.618338198242185
 31
0.0
  0
LINE
  5
D7
330
1F
100
AcDbEntity
  8
Unnamed Level 1
  6
Continuous2
 62
    96
420
    32768
 60
     1
370
    -3
100
AcDbLine
 10
5.596089405304758
 20
2.587088198242147
 30
0.0
 11
5.616901905304701
 21
2.618338198242185
 31
0.0
  0
LINE
  5
D8
330
1F
100
AcDbEntity
  8
Unnamed Level 1
  6
Continuous2
 62
    96
420
    32768
 60
     1
370
    -3
100
AcDbLine
 10
3.860294227953261
 20
2.351486206054688
 30
0.0
 11
4.180957794189453
 21
2.351486206054688
 31
0.0
  0
LINE
  5
D9
330
1F
100
AcDbEntity
  8
Unnamed Level 1
  6
Continuous2
 62
    96
420
    32768
 60
     1
370
    -3
100
AcDbLine
 10
3.901981727953261
 20
2.382736206054688
 30
0.0
 11
3.922794227953261
 21
2.351486206054688
 31
0.0
  0
LINE
  5
DA
330
1F
100
AcDbEntity
  8
Unnamed Level 1
  6
Continuous2
 62
    96
420
    32768
 60
     1
370
    -3
100
AcDbLine
 10
3.943606727953261
 20
2.382736206054688
 30
0.0
 11
3.922794227953261
 21
2.351486206054688
 31
0.0
  0
LINE
  5
DB
330
1F
100
AcDbEntity
  8
Unnamed Level 1
  6
Continuous2
 62
    96
420
    32768
 60
     1
370
    -3
100
AcDbLine
 10
3.943606727953261
 20
2.675712585449219
 30
0.0
 11
3.922794227953261
 21
2.706962585449219
 31
0.0
  0
LINE
  5
DC
330
1F
100
AcDbEntity
  8
Unnamed Level 1
  6
Continuous2
 62
    96
420
    32768
 60
     1
370
    -3
100
AcDbLine
 10
3.901981727953261
 20
2.675712585449219
 30
0.0
 11
3.922794227953261
 21
2.706962585449219
 31
0.0
  0
LINE
  5
DD
330
1F
100
AcDbEntity
  8
Unnamed Level 1
  6
Continuous2
 62
    96
420
    32768
 60
     1
370
    -3
100
AcDbLine
 10
3.922794227953261
 20
2.351736206054682
 30
0.0
 11
3.922794227953261
 21
2.351486206054688
 31
0.0
  0
LINE
  5
DE
330
1F
100
AcDbEntity
  8
Unnamed Level 1
  6
Continuous2
 62
    96
420
    32768
 60
     1
370
    -3
100
AcDbLine
 10
3.901981727953261
 20
2.382736206054688
 30
0.0
 11
3.922794227953261
 21
2.351486206054688
 31
0.0
  0
LINE
  5
DF
330
1F
100
AcDbEntity
  8
Unnamed Level 1
  6
Continuous2
 62
    96
420
    32768
 60
     1
370
    -3
100
AcDbLine
 10
3.943606727953261
 20
2.382736206054688
 30
0.0
 11
3.922794227953261
 21
2.351486206054688
 31
0.0
  0
LINE
  5
E0
330
1F
100
AcDbEntity
  8
Unnamed Level 1
  6
Continuous2
 62
    96
420
    32768
 60
     1
370
    -3
100
AcDbLine
 10
3.943606727953261
 20
2.675712585449219
 30
0.0
 11
3.922794227953261
 21
2.706962585449219
 31
0.0
  0
LINE
  5
E1
330
1F
100
AcDbEntity
  8
Unnamed Level 1
  6
Continuous2
 62
    96
420
    32768
 60
     1
370
    -3
100
AcDbLine
 10
3.901981727953261
 20
2.675712585449219
 30
0.0
 11
3.922794227953261
 21
2.706962585449219
 31
0.0
  0
TEXT
  5
E2
330
1F
100
AcDbEntity
  8
Unnamed Level 1
  6
Continuous2
 62
    96
420
    32768
 60
     1
370
    -3
100
AcDbText
 10
3.787009914227771
 20
2.466724395751953
 30
0.0
 40
0.125
  1
.355
 41
0.5
  7
MCStick_A0.500000_S0.000000
100
AcDbText
  0
LINE
  5
E3
330
1F
100
AcDbEntity
  8
Unnamed Level 1
  6
Continuous2
 62
    96
420
    32768
 60
     1
370
    -3
100
AcDbLine
 10
3.922794227953261
 20
2.706712585449225
 30
0.0
 11
3.922794227953261
 21
2.706962585449219
 31
0.0
  0
LINE
  5
E4
330
1F
100
AcDbEntity
  8
Unnamed Level 1
  6
Continuous2
 62
    96
420
    32768
 60
     1
370
    -3
100
AcDbLine
 10
3.901981727953261
 20
2.382736206054688
 30
0.0
 11
3.922794227953261
 21
2.351486206054688
 31
0.0
  0
LINE
  5
E5
330
1F
100
AcDbEntity
  8
Unnamed Level 1
  6
Continuous2
 62
    96
420
    32768
 60
     1
370
    -3
100
AcDbLine
 10
3.943606727953261
 20
2.382736206054688
 30
0.0
 11
3.922794227953261
 21
2.351486206054688
 31
0.0
  0
LINE
  5
E6
330
1F
100
AcDbEntity
  8
Unnamed Level 1
  6
Continuous2
 62
    96
420
    32768
 60
     1
370
    -3
100
AcDbLine
 10
3.943606727953261
 20
2.675712585449219
 30
0.0
 11
3.922794227953261
 21
2.706962585449219
 31
0.0
  0
LINE
  5
E7
330
1F
100
AcDbEntity
  8
Unnamed Level 1
  6
Continuous2
 62
    96
420
    32768
 60
     1
370
    -3
100
AcDbLine
 10
3.901981727953261
 20
2.675712585449219
 30
0.0
 11
3.922794227953261
 21
2.706962585449219
 31
0.0
  0
LINE
  5
E8
330
1F
100
AcDbEntity
  8
Unnamed Level 1
  6
Continuous2
 62
    96
420
    32768
 60
     1
370
    -3
100
AcDbLine
 10
3.860294227953261
 20
2.706962585449219
 30
0.0
 11
4.42022705078125
 21
2.706962585449219
 31
0.0
  0
LINE
  5
E9
330
1F
100
AcDbEntity
  8
Unnamed Level 1
  6
Continuous2
 62
    96
420
    32768
 60
     1
370
    -3
100
AcDbLine
 10
3.901981727953261
 20
2.382736206054688
 30
0.0
 11
3.922794227953261
 21
2.351486206054688
 31
0.0
  0
LINE
  5
EA
330
1F
100
AcDbEntity
  8
Unnamed Level 1
  6
Continuous2
 62
    96
420
    32768
 60
     1
370
    -3
100
AcDbLine
 10
3.943606727953261
 20
2.382736206054688
 30
0.0
 11
3.922794227953261
 21
2.351486206054688
 31
0.0
  0
LINE
  5
EB
330
1F
100
AcDbEntity
  8
Unnamed Level 1
  6
Continuous2
 62
    96
420
    32768
 60
     1
370
    -3
100
AcDbLine
 10
3.943606727953261
 20
2.675712585449219
 30
0.0
 11
3.922794227953261
 21
2.706962585449219
 31
0.0
  0
LINE
  5
EC
330
1F
100
AcDbEntity
  8
Unnamed Level 1
  6
Continuous2
 62
    96
420
    32768
 60
     1
370
    -3
100
AcDbLine
 10
3.901981727953261
 20
2.675712585449219
 30
0.0
 11
3.922794227953261
 21
2.706962585449219
 31
0.0
  0
LINE
  5
ED
330
1F
100
AcDbEntity
  8
Unnamed Level 1
  6
Continuous2
 62
    96
420
    32768
 60
     1
370
    -3
100
AcDbLine
 10
4.305957794189453
 20
3.207840848733184
 30
0.0
 11
4.305957794189453
 21
2.5118408203125
 31
0.0
  0
LINE
  5
EE
330
1F
100
AcDbEntity
  8
Unnamed Level 1
  6
Continuous2
 62
    96
420
    32768
 60
     1
370
    -3
100
AcDbLine
 10
4.337207794189453
 20
3.166153348733185
 30
0.0
 11
4.305957794189453
 21
3.145340848733184
 31
0.0
  0
LINE
  5
EF
330
1F
100
AcDbEntity
  8
Unnamed Level 1
  6
Continuous2
 62
    96
420
    32768
 60
     1
370
    -3
100
AcDbLine
 10
4.337207794189453
 20
3.124528348733185
 30
0.0
 11
4.305957794189453
 21
3.145340848733184
 31
0.0
  0
LINE
  5
F0
330
1F
100
AcDbEntity
  8
Unnamed Level 1
  6
Continuous2
 62
    96
420
    32768
 60
     1
370
    -3
100
AcDbLine
 10
4.560848236083984
 20
3.166153348733184
 30
0.0
 11
4.529598236083984
 21
3.145340848733184
 31
0.0
  0
LINE
  5
F1
330
1F
100
AcDbEntity
  8
Unnamed Level 1
  6
Continuous2
 62
    96
420
    32768
 60
     1
370
    -3
100
AcDbLine
 10
4.560848236083984
 20
3.124528348733184
 30
0.0
 11
4.529598236083984
 21
3.145340848733184
 31
0.0
  0
LINE
  5
F2
330
1F
100
AcDbEntity
  8
Unnamed Level 1
  6
Continuous2
 62
    96
420
    32768
 60
     1
370
    -3
100
AcDbLine
 10
4.321969123404536
 20
3.145340848733184
 30
0.0
 11
4.305957794189453
 21
3.145340848733184
 31
0.0
  0
LINE
  5
F3
330
1F
100
AcDbEntity
  8
Unnamed Level 1
  6
Continuous2
 62
    96
420
    32768
 60
     1
370
    -3
100
AcDbLine
 10
4.321969123404536
 20
3.145340848733184
 30
0.0
 11
4.071969123404536
 21
3.145340848733184
 31
0.0
  0
LINE
  5
F4
330
1F
100
AcDbEntity
  8
Unnamed Level 1
  6
Continuous2
 62
    96
420
    32768
 60
     1
370
    -3
100
AcDbLine
 10
4.337207794189453
 20
3.166153348733185
 30
0.0
 11
4.305957794189453
 21
3.145340848733184
 31
0.0
  0
LINE
  5
F5
330
1F
100
AcDbEntity
  8
Unnamed Level 1
  6
Continuous2
 62
    96
420
    32768
 60
     1
370
    -3
100
AcDbLine
 10
4.337207794189453
 20
3.124528348733185
 30
0.0
 11
4.305957794189453
 21
3.145340848733184
 31
0.0
  0
LINE
  5
F6
330
1F
100
AcDbEntity
  8
Unnamed Level 1
  6
Continuous2
 62
    96
420
    32768
 60
     1
370
    -3
100
AcDbLine
 10
4.560848236083984
 20
3.166153348733184
 30
0.0
 11
4.529598236083984
 21
3.145340848733184
 31
0.0
  0
LINE
  5
F7
330
1F
100
AcDbEntity
  8
Unnamed Level 1
  6
Continuous2
 62
    96
420
    32768
 60
     1
370
    -3
100
AcDbLine
 10
4.560848236083984
 20
3.124528348733184
 30
0.0
 11
4.529598236083984
 21
3.145340848733184
 31
0.0
  0
TEXT
  5
F8
330
1F
100
AcDbEntity
  8
Unnamed Level 1
  6
Continuous2
 62
    96
420
    32768
 60
     1
370
    -3
100
AcDbText
 10
3.61277794693395
 20
3.082840848733184
 30
0.0
 40
0.125
  1
.224
 41
0.5
  7
MCStick_A0.500000_S0.000000
100
AcDbText
  0
LINE
  5
F9
330
1F
100
AcDbEntity
  8
Unnamed Level 1
  6
Continuous2
 62
    96
420
    32768
 60
     1
370
    -3
100
AcDbLine
 10
4.779598236083984
 20
3.145340848733184
 30
0.0
 11
4.529598236083984
 21
3.145340848733184
 31
0.0
  0
LINE
  5
FA
330
1F
100
AcDbEntity
  8
Unnamed Level 1
  6
Continuous2
 62
    96
420
    32768
 60
     1
370
    -3
100
AcDbLine
 10
4.337207794189453
 20
3.166153348733185
 30
0.0
 11
4.305957794189453
 21
3.145340848733184
 31
0.0
  0
LINE
  5
FB
330
1F
100
AcDbEntity
  8
Unnamed Level 1
  6
Continuous2
 62
    96
420
    32768
 60
     1
370
    -3
100
AcDbLine
 10
4.337207794189453
 20
3.124528348733185
 30
0.0
 11
4.305957794189453
 21
3.145340848733184
 31
0.0
  0
LINE
  5
FC
330
1F
100
AcDbEntity
  8
Unnamed Level 1
  6
Continuous2
 62
    96
420
    32768
 60
     1
370
    -3
100
AcDbLine
 10
4.560848236083984
 20
3.166153348733184
 30
0.0
 11
4.529598236083984
 21
3.145340848733184
 31
0.0
  0
LINE
  5
FD
330
1F
100
AcDbEntity
  8
Unnamed Level 1
  6
Continuous2
 62
    96
420
    32768
 60
     1
370
    -3
100
AcDbLine
 10
4.560848236083984
 20
3.124528348733184
 30
0.0
 11
4.529598236083984
 21
3.145340848733184
 31
0.0
  0
LINE
  5
FE
330
1F
100
AcDbEntity
  8
Unnamed Level 1
  6
Continuous2
 62
    96
420
    32768
 60
     1
370
    -3
100
AcDbLine
 10
4.529598236083984
 20
3.207840848733184
 30
0.0
 11
4.529598236083984
 21
2.816329956054688
 31
0.0
  0
LINE
  5
FF
330
1F
100
AcDbEntity
  8
Unnamed Level 1
  6
Continuous2
 62
    96
420
    32768
 60
     1
370
    -3
100
AcDbLine
 10
4.337207794189453
 20
3.166153348733185
 30
0.0
 11
4.305957794189453
 21
3.145340848733184
 31
0.0
  0
LINE
  5
100
330
1F
100
AcDbEntity
  8
Unnamed Level 1
  6
Continuous2
 62
    96
420
    32768
 60
     1
370
    -3
100
AcDbLine
 10
4.337207794189453
 20
3.124528348733185
 30
0.0
 11
4.305957794189453
 21
3.145340848733184
 31
0.0
  0
LINE
  5
101
330
1F
100
AcDbEntity
  8
Unnamed Level 1
  6
Continuous2
 62
    96
420
    32768
 60
     1
370
    -3
100
AcDbLine
 10
4.560848236083984
 20
3.166153348733184
 30
0.0
 11
4.529598236083984
 21
3.145340848733184
 31
0.0
  0
LINE
  5
102
330
1F
100
AcDbEntity
  8
Unnamed Level 1
  6
Continuous2
 62
    96
420
    32768
 60
     1
370
    -3
100
AcDbLine
 10
4.560848236083984
 20
3.124528348733184
 30
0.0
 11
4.529598236083984
 21
3.145340848733184
 31
0.0
  0
LINE
  5
103
330
1F
100
AcDbEntity
  8
Unnamed Level 1
  6
Continuous2
 62
    96
420
    32768
 60
     1
370
    -3
100
AcDbLine
 10
3.024497985839844
 20
-2.055449471210338
 30
0.0
 11
3.024497985839844
 21
-1.197547912597656
 31
0.0
  0
LINE
  5
104
330
1F
100
AcDbEntity
  8
Unnamed Level 1
  6
Continuous2
 62
    96
420
    32768
 60
     1
370
    -3
100
AcDbLine
 10
3.055747985839844
 20
-1.972136971210338
 30
0.0
 11
3.024497985839844
 21
-1.992949471210338
 31
0.0
  0
LINE
  5
105
330
1F
100
AcDbEntity
  8
Unnamed Level 1
  6
Continuous2
 62
    96
420
    32768
 60
     1
370
    -3
100
AcDbLine
 10
3.055747985839844
 20
-2.013761971210338
 30
0.0
 11
3.024497985839844
 21
-1.992949471210338
 31
0.0
  0
LINE
  5
106
330
1F
100
AcDbEntity
  8
Unnamed Level 1
  6
Continuous2
 62
    96
420
    32768
 60
     1
370
    -3
100
AcDbLine
 10
6.243724822998047
 20
-2.013761971210338
 30
0.0
 11
6.274974822998047
 21
-1.992949471210338
 31
0.0
  0
LINE
  5
107
330
1F
100
AcDbEntity
  8
Unnamed Level 1
  6
Continuous2
 62
    96
420
    32768
 60
     1
370
    -3
100
AcDbLine
 10
6.243724822998047
 20
-1.972136971210338
 30
0.0
 11
6.274974822998047
 21
-1.992949471210338
 31
0.0
  0
LINE
  5
108
330
1F
100
AcDbEntity
  8
Unnamed Level 1
  6
Continuous2
 62
    96
420
    32768
 60
     1
370
    -3
100
AcDbLine
 10
4.32632954167385
 20
-1.992949471210338
 30
0.0
 11
3.024497985839844
 21
-1.992949471210338
 31
0.0
  0
LINE
  5
109
330
1F
100
AcDbEntity
  8
Unnamed Level 1
  6
Continuous2
 62
    96
420
    32768
 60
     1
370
    -3
100
AcDbLine
 10
3.055747985839844
 20
-1.972136971210338
 30
0.0
 11
3.024497985839844
 21
-1.992949471210338
 31
0.0
  0
LINE
  5
10A
330
1F
100
AcDbEntity
  8
Unnamed Level 1
  6
Continuous2
 62
    96
420
    32768
 60
     1
370
    -3
100
AcDbLine
 10
3.055747985839844
 20
-2.013761971210338
 30
0.0
 11
3.024497985839844
 21
-1.992949471210338
 31
0.0
  0
LINE
  5
10B
330
1F
100
AcDbEntity
  8
Unnamed Level 1
  6
Continuous2
 62
    96
420
    32768
 60
     1
370
    -3
100
AcDbLine
 10
6.243724822998047
 20
-2.013761971210338
 30
0.0
 11
6.274974822998047
 21
-1.992949471210338
 31
0.0
  0
LINE
  5
10C
330
1F
100
AcDbEntity
  8
Unnamed Level 1
  6
Continuous2
 62
    96
420
    32768
 60
     1
370
    -3
100
AcDbLine
 10
6.243724822998047
 20
-1.972136971210338
 30
0.0
 11
6.274974822998047
 21
-1.992949471210338
 31
0.0
  0
TEXT
  5
10D
330
1F
100
AcDbEntity
  8
Unnamed Level 1
  6
Continuous2
 62
    96
420
    32768
 60
     1
370
    -3
100
AcDbText
 10
4.513952090693455
 20
-2.055449471210338
 30
0.0
 40
0.125
  1
3.25
 41
0.5
  7
MCStick_A0.500000_S0.000000
100
AcDbText
  0
LINE
  5
10E
330
1F
100
AcDbEntity
  8
Unnamed Level 1
  6
Continuous2
 62
    96
420
    32768
 60
     1
370
    -3
100
AcDbLine
 10
4.973143267164041
 20
-1.992949471210338
 30
0.0
 11
6.274974822998047
 21
-1.992949471210338
 31
0.0
  0
LINE
  5
10F
330
1F
100
AcDbEntity
  8
Unnamed Level 1
  6
Continuous2
 62
    96
420
    32768
 60
     1
370
    -3
100
AcDbLine
 10
3.055747985839844
 20
-1.972136971210338
 30
0.0
 11
3.024497985839844
 21
-1.992949471210338
 31
0.0
  0
LINE
  5
110
330
1F
100
AcDbEntity
  8
Unnamed Level 1
  6
Continuous2
 62
    96
420
    32768
 60
     1
370
    -3
100
AcDbLine
 10
3.055747985839844
 20
-2.013761971210338
 30
0.0
 11
3.024497985839844
 21
-1.992949471210338
 31
0.0
  0
LINE
  5
111
330
1F
100
AcDbEntity
  8
Unnamed Level 1
  6
Continuous2
 62
    96
420
    32768
 60
     1
370
    -3
100
AcDbLine
 10
6.243724822998047
 20
-2.013761971210338
 30
0.0
 11
6.274974822998047
 21
-1.992949471210338
 31
0.0
  0
LINE
  5
112
330
1F
100
AcDbEntity
  8
Unnamed Level 1
  6
Continuous2
 62
    96
420
    32768
 60
     1
370
    -3
100
AcDbLine
 10
6.243724822998047
 20
-1.972136971210338
 30
0.0
 11
6.274974822998047
 21
-1.992949471210338
 31
0.0
  0
LINE
  5
113
330
1F
100
AcDbEntity
  8
Unnamed Level 1
  6
Continuous2
 62
    96
420
    32768
 60
     1
370
    -3
100
AcDbLine
 10
6.274974822998047
 20
-2.055449471210338
 30
0.0
 11
6.274974822998047
 21
-0.8970260620117188
 31
0.0
  0
LINE
  5
114
330
1F
100
AcDbEntity
  8
Unnamed Level 1
  6
Continuous2
 62
    96
420
    32768
 60
     1
370
    -3
100
AcDbLine
 10
3.055747985839844
 20
-1.972136971210338
 30
0.0
 11
3.024497985839844
 21
-1.992949471210338
 31
0.0
  0
LINE
  5
115
330
1F
100
AcDbEntity
  8
Unnamed Level 1
  6
Continuous2
 62
    96
420
    32768
 60
     1
370
    -3
100
AcDbLine
 10
3.055747985839844
 20
-2.013761971210338
 30
0.0
 11
3.024497985839844
 21
-1.992949471210338
 31
0.0
  0
LINE
  5
116
330
1F
100
AcDbEntity
  8
Unnamed Level 1
  6
Continuous2
 62
    96
420
    32768
 60
     1
370
    -3
100
AcDbLine
 10
6.243724822998047
 20
-2.013761971210338
 30
0.0
 11
6.274974822998047
 21
-1.992949471210338
 31
0.0
  0
LINE
  5
117
330
1F
100
AcDbEntity
  8
Unnamed Level 1
  6
Continuous2
 62
    96
420
    32768
 60
     1
370
    -3
100
AcDbLine
 10
6.243724822998047
 20
-1.972136971210338
 30
0.0
 11
6.274974822998047
 21
-1.992949471210338
 31
0.0
  0
LINE
  5
118
330
1F
100
AcDbEntity
  8
Unnamed Level 1
  6
Continuous2
 62
    96
420
    32768
 60
     1
370
    -3
100
AcDbLine
 10
5.899772644042969
 20
-1.622785695543314
 30
0.0
 11
5.899772644042969
 21
-1.385047912597656
 31
0.0
  0
LINE
  5
119
330
1F
100
AcDbEntity
  8
Unnamed Level 1
  6
Continuous2
 62
    96
420
    32768
 60
     1
370
    -3
100
AcDbLine
 10
5.931022644042969
 20
-1.539473195543314
 30
0.0
 11
5.899772644042969
 21
-1.560285695543314
 31
0.0
  0
LINE
  5
11A
330
1F
100
AcDbEntity
  8
Unnamed Level 1
  6
Continuous2
 62
    96
420
    32768
 60
     1
370
    -3
100
AcDbLine
 10
5.931022644042969
 20
-1.581098195543314
 30
0.0
 11
5.899772644042969
 21
-1.560285695543314
 31
0.0
  0
LINE
  5
11B
330
1F
100
AcDbEntity
  8
Unnamed Level 1
  6
Continuous2
 62
    96
420
    32768
 60
     1
370
    -3
100
AcDbLine
 10
6.243724822998047
 20
-1.581098195543314
 30
0.0
 11
6.274974822998047
 21
-1.560285695543314
 31
0.0
  0
LINE
  5
11C
330
1F
100
AcDbEntity
  8
Unnamed Level 1
  6
Continuous2
 62
    96
420
    32768
 60
     1
370
    -3
100
AcDbLine
 10
6.243724822998047
 20
-1.539473195543314
 30
0.0
 11
6.274974822998047
 21
-1.560285695543314
 31
0.0
  0
LINE
  5
11D
330
1F
100
AcDbEntity
  8
Unnamed Level 1
  6
Continuous2
 62
    96
420
    32768
 60
     1
370
    -3
100
AcDbLine
 10
5.90002264404297
 20
-1.560285695543314
 30
0.0
 11
5.899772644042969
 21
-1.560285695543314
 31
0.0
  0
LINE
  5
11E
330
1F
100
AcDbEntity
  8
Unnamed Level 1
  6
Continuous2
 62
    96
420
    32768
 60
     1
370
    -3
100
AcDbLine
 10
5.931022644042969
 20
-1.539473195543314
 30
0.0
 11
5.899772644042969
 21
-1.560285695543314
 31
0.0
  0
LINE
  5
11F
330
1F
100
AcDbEntity
  8
Unnamed Level 1
  6
Continuous2
 62
    96
420
    32768
 60
     1
370
    -3
100
AcDbLine
 10
5.931022644042969
 20
-1.581098195543314
 30
0.0
 11
5.899772644042969
 21
-1.560285695543314
 31
0.0
  0
LINE
  5
120
330
1F
100
AcDbEntity
  8
Unnamed Level 1
  6
Continuous2
 62
    96
420
    32768
 60
     1
370
    -3
100
AcDbLine
 10
6.243724822998047
 20
-1.581098195543314
 30
0.0
 11
6.274974822998047
 21
-1.560285695543314
 31
0.0
  0
LINE
  5
121
330
1F
100
AcDbEntity
  8
Unnamed Level 1
  6
Continuous2
 62
    96
420
    32768
 60
     1
370
    -3
100
AcDbLine
 10
6.243724822998047
 20
-1.539473195543314
 30
0.0
 11
6.274974822998047
 21
-1.560285695543314
 31
0.0
  0
TEXT
  5
122
330
1F
100
AcDbEntity
  8
Unnamed Level 1
  6
Continuous2
 62
    96
420
    32768
 60
     1
370
    -3
100
AcDbText
 10
5.951589419795018
 20
-1.622785695543314
 30
0.0
 40
0.125
  1
.375
 41
0.5
  7
MCStick_A0.500000_S0.000000
100
AcDbText
  0
LINE
  5
123
330
1F
100
AcDbEntity
  8
Unnamed Level 1
  6
Continuous2
 62
    96
420
    32768
 60
     1
370
    -3
100
AcDbLine
 10
6.274724822998046
 20
-1.560285695543314
 30
0.0
 11
6.274974822998047
 21
-1.560285695543314
 31
0.0
  0
LINE
  5
124
330
1F
100
AcDbEntity
  8
Unnamed Level 1
  6
Continuous2
 62
    96
420
    32768
 60
     1
370
    -3
100
AcDbLine
 10
5.931022644042969
 20
-1.539473195543314
 30
0.0
 11
5.899772644042969
 21
-1.560285695543314
 31
0.0
  0
LINE
  5
125
330
1F
100
AcDbEntity
  8
Unnamed Level 1
  6
Continuous2
 62
    96
420
    32768
 60
     1
370
    -3
100
AcDbLine
 10
5.931022644042969
 20
-1.581098195543314
 30
0.0
 11
5.899772644042969
 21
-1.560285695543314
 31
0.0
  0
LINE
  5
126
330
1F
100
AcDbEntity
  8
Unnamed Level 1
  6
Continuous2
 62
    96
420
    32768
 60
     1
370
    -3
100
AcDbLine
 10
6.243724822998047
 20
-1.581098195543314
 30
0.0
 11
6.274974822998047
 21
-1.560285695543314
 31
0.0
  0
LINE
  5
127
330
1F
100
AcDbEntity
  8
Unnamed Level 1
  6
Continuous2
 62
    96
420
    32768
 60
     1
370
    -3
100
AcDbLine
 10
6.243724822998047
 20
-1.539473195543314
 30
0.0
 11
6.274974822998047
 21
-1.560285695543314
 31
0.0
  0
LINE
  5
128
330
1F
100
AcDbEntity
  8
Unnamed Level 1
  6
Continuous2
 62
    96
420
    32768
 60
     1
370
    -3
100
AcDbLine
 10
6.274974822998047
 20
-1.622785695543314
 30
0.0
 11
6.274974822998047
 21
-0.8970260620117188
 31
0.0
  0
LINE
  5
129
330
1F
100
AcDbEntity
  8
Unnamed Level 1
  6
Continuous2
 62
    96
420
    32768
 60
     1
370
    -3
100
AcDbLine
 10
5.931022644042969
 20
-1.539473195543314
 30
0.0
 11
5.899772644042969
 21
-1.560285695543314
 31
0.0
  0
LINE
  5
12A
330
1F
100
AcDbEntity
  8
Unnamed Level 1
  6
Continuous2
 62
    96
420
    32768
 60
     1
370
    -3
100
AcDbLine
 10
5.931022644042969
 20
-1.581098195543314
 30
0.0
 11
5.899772644042969
 21
-1.560285695543314
 31
0.0
  0
LINE
  5
12B
330
1F
100
AcDbEntity
  8
Unnamed Level 1
  6
Continuous2
 62
    96
420
    32768
 60
     1
370
    -3
100
AcDbLine
 10
6.243724822998047
 20
-1.581098195543314
 30
0.0
 11
6.274974822998047
 21
-1.560285695543314
 31
0.0
  0
LINE
  5
12C
330
1F
100
AcDbEntity
  8
Unnamed Level 1
  6
Continuous2
 62
    96
420
    32768
 60
     1
370
    -3
100
AcDbLine
 10
6.243724822998047
 20
-1.539473195543314
 30
0.0
 11
6.274974822998047
 21
-1.560285695543314
 31
0.0
  0
LINE
  5
12D
330
1F
100
AcDbEntity
  8
Unnamed Level 1
  6
Continuous2
 62
    96
420
    32768
 60
     1
370
    -3
100
AcDbLine
 10
6.172376082653756
 20
0.2301879993909495
 30
0.0
 11
6.172376082653756
 21
-0.4905810721969459
 31
0.0
  0
LINE
  5
12E
330
1F
100
AcDbEntity
  8
Unnamed Level 1
  6
Continuous2
 62
    96
420
    32768
 60
     1
370
    -3
100
AcDbLine
 10
6.141126082653756
 20
0.1468754993909495
 30
0.0
 11
6.172376082653756
 21
0.1676879993909495
 31
0.0
  0
LINE
  5
12F
330
1F
100
AcDbEntity
  8
Unnamed Level 1
  6
Continuous2
 62
    96
420
    32768
 60
     1
370
    -3
100
AcDbLine
 10
6.141126082653756
 20
0.1885004993909495
 30
0.0
 11
6.172376082653756
 21
0.1676879993909495
 31
0.0
  0
LINE
  5
130
330
1F
100
AcDbEntity
  8
Unnamed Level 1
  6
Continuous2
 62
    96
420
    32768
 60
     1
370
    -3
100
AcDbLine
 10
6.243724997863765
 20
0.1468754993909495
 30
0.0
 11
6.274974997863765
 21
0.1676879993909495
 31
0.0
  0
LINE
  5
131
330
1F
100
AcDbEntity
  8
Unnamed Level 1
  6
Continuous2
 62
    96
420
    32768
 60
     1
370
    -3
100
AcDbLine
 10
6.243724997863765
 20
0.1885004993909495
 30
0.0
 11
6.274974997863765
 21
0.1676879993909495
 31
0.0
  0
LINE
  5
132
330
1F
100
AcDbEntity
  8
Unnamed Level 1
  6
Continuous2
 62
    96
420
    32768
 60
     1
370
    -3
100
AcDbLine
 10
5.922376082653756
 20
0.1676879993909495
 30
0.0
 11
6.172376082653756
 21
0.1676879993909495
 31
0.0
  0
LINE
  5
133
330
1F
100
AcDbEntity
  8
Unnamed Level 1
  6
Continuous2
 62
    96
420
    32768
 60
     1
370
    -3
100
AcDbLine
 10
6.141126082653756
 20
0.1468754993909495
 30
0.0
 11
6.172376082653756
 21
0.1676879993909495
 31
0.0
  0
LINE
  5
134
330
1F
100
AcDbEntity
  8
Unnamed Level 1
  6
Continuous2
 62
    96
420
    32768
 60
     1
370
    -3
100
AcDbLine
 10
6.141126082653756
 20
0.1885004993909495
 30
0.0
 11
6.172376082653756
 21
0.1676879993909495
 31
0.0
  0
LINE
  5
135
330
1F
100
AcDbEntity
  8
Unnamed Level 1
  6
Continuous2
 62
    96
420
    32768
 60
     1
370
    -3
100
AcDbLine
 10
6.243724997863765
 20
0.1468754993909495
 30
0.0
 11
6.274974997863765
 21
0.1676879993909495
 31
0.0
  0
LINE
  5
136
330
1F
100
AcDbEntity
  8
Unnamed Level 1
  6
Continuous2
 62
    96
420
    32768
 60
     1
370
    -3
100
AcDbLine
 10
6.243724997863765
 20
0.1885004993909495
 30
0.0
 11
6.274974997863765
 21
0.1676879993909495
 31
0.0
  0
TEXT
  5
137
330
1F
100
AcDbEntity
  8
Unnamed Level 1
  6
Continuous2
 62
    96
420
    32768
 60
     1
370
    -3
100
AcDbText
 10
6.708419420902335
 20
0.1051879993909495
 30
0.0
 40
0.125
  1
.103
 41
0.5
  7
MCStick_A0.500000_S0.000000
100
AcDbText
  0
LINE
  5
138
330
1F
100
AcDbEntity
  8
Unnamed Level 1
  6
Continuous2
 62
    96
420
    32768
 60
     1
370
    -3
100
AcDbLine
 10
6.270674322863123
 20
0.1676879993909495
 30
0.0
 11
6.274974997863765
 21
0.1676879993909495
 31
0.0
  0
LINE
  5
139
330
1F
100
AcDbEntity
  8
Unnamed Level 1
  6
Continuous2
 62
    96
420
    32768
 60
     1
370
    -3
100
AcDbLine
 10
6.270674322863123
 20
0.1676879993909495
 30
0.0
 11
6.520674322863123
 21
0.1676879993909495
 31
0.0
  0
LINE
  5
13A
330
1F
100
AcDbEntity
  8
Unnamed Level 1
  6
Continuous2
 62
    96
420
    32768
 60
     1
370
    -3
100
AcDbLine
 10
6.141126082653756
 20
0.1468754993909495
 30
0.0
 11
6.172376082653756
 21
0.1676879993909495
 31
0.0
  0
LINE
  5
13B
330
1F
100
AcDbEntity
  8
Unnamed Level 1
  6
Continuous2
 62
    96
420
    32768
 60
     1
370
    -3
100
AcDbLine
 10
6.141126082653756
 20
0.1885004993909495
 30
0.0
 11
6.172376082653756
 21
0.1676879993909495
 31
0.0
  0
LINE
  5
13C
330
1F
100
AcDbEntity
  8
Unnamed Level 1
  6
Continuous2
 62
    96
420
    32768
 60
     1
370
    -3
100
AcDbLine
 10
6.243724997863765
 20
0.1468754993909495
 30
0.0
 11
6.274974997863765
 21
0.1676879993909495
 31
0.0
  0
LINE
  5
13D
330
1F
100
AcDbEntity
  8
Unnamed Level 1
  6
Continuous2
 62
    96
420
    32768
 60
     1
370
    -3
100
AcDbLine
 10
6.243724997863765
 20
0.1885004993909495
 30
0.0
 11
6.274974997863765
 21
0.1676879993909495
 31
0.0
  0
LINE
  5
13E
330
1F
100
AcDbEntity
  8
Unnamed Level 1
  6
Continuous2
 62
    96
420
    32768
 60
     1
370
    -3
100
AcDbLine
 10
6.274974997863765
 20
0.2301879993909495
 30
0.0
 11
6.274974997863765
 21
-0.4905810721969459
 31
0.0
  0
LINE
  5
13F
330
1F
100
AcDbEntity
  8
Unnamed Level 1
  6
Continuous2
 62
    96
420
    32768
 60
     1
370
    -3
100
AcDbLine
 10
6.141126082653756
 20
0.1468754993909495
 30
0.0
 11
6.172376082653756
 21
0.1676879993909495
 31
0.0
  0
LINE
  5
140
330
1F
100
AcDbEntity
  8
Unnamed Level 1
  6
Continuous2
 62
    96
420
    32768
 60
     1
370
    -3
100
AcDbLine
 10
6.141126082653756
 20
0.1885004993909495
 30
0.0
 11
6.172376082653756
 21
0.1676879993909495
 31
0.0
  0
LINE
  5
141
330
1F
100
AcDbEntity
  8
Unnamed Level 1
  6
Continuous2
 62
    96
420
    32768
 60
     1
370
    -3
100
AcDbLine
 10
6.243724997863765
 20
0.1468754993909495
 30
0.0
 11
6.274974997863765
 21
0.1676879993909495
 31
0.0
  0
LINE
  5
142
330
1F
100
AcDbEntity
  8
Unnamed Level 1
  6
Continuous2
 62
    96
420
    32768
 60
     1
370
    -3
100
AcDbLine
 10
6.243724997863765
 20
0.1885004993909495
 30
0.0
 11
6.274974997863765
 21
0.1676879993909495
 31
0.0
  0
LINE
  5
143
330
1F
100
AcDbEntity
  8
Unnamed Level 1
  6
Continuous2
 62
    96
420
    32768
 60
     1
370
    -3
100
AcDbLine
 10
3.375560760498047
 20
0.4556595555008727
 30
0.0
 11
3.375560760498047
 21
-0.0339279174804688
 31
0.0
  0
LINE
  5
144
330
1F
100
AcDbEntity
  8
Unnamed Level 1
  6
Continuous2
 62
    96
420
    32768
 60
     1
370
    -3
100
AcDbLine
 10
3.406810760498047
 20
0.4139720555008727
 30
0.0
 11
3.375560760498047
 21
0.3931595555008727
 31
0.0
  0
LINE
  5
145
330
1F
100
AcDbEntity
  8
Unnamed Level 1
  6
Continuous2
 62
    96
420
    32768
 60
     1
370
    -3
100
AcDbLine
 10
3.406810760498047
 20
0.3723470555008727
 30
0.0
 11
3.375560760498047
 21
0.3931595555008727
 31
0.0
  0
LINE
  5
146
330
1F
100
AcDbEntity
  8
Unnamed Level 1
  6
Continuous2
 62
    96
420
    32768
 60
     1
370
    -3
100
AcDbLine
 10
3.611164093017578
 20
0.3723470555008727
 30
0.0
 11
3.642414093017578
 21
0.3931595555008727
 31
0.0
  0
LINE
  5
147
330
1F
100
AcDbEntity
  8
Unnamed Level 1
  6
Continuous2
 62
    96
420
    32768
 60
     1
370
    -3
100
AcDbLine
 10
3.611164093017578
 20
0.4139720555008727
 30
0.0
 11
3.642414093017578
 21
0.3931595555008727
 31
0.0
  0
LINE
  5
148
330
1F
100
AcDbEntity
  8
Unnamed Level 1
  6
Continuous2
 62
    96
420
    32768
 60
     1
370
    -3
100
AcDbLine
 10
3.375810760498048
 20
0.3931595555008727
 30
0.0
 11
3.375560760498047
 21
0.3931595555008727
 31
0.0
  0
LINE
  5
149
330
1F
100
AcDbEntity
  8
Unnamed Level 1
  6
Continuous2
 62
    96
420
    32768
 60
     1
370
    -3
100
AcDbLine
 10
3.406810760498047
 20
0.4139720555008727
 30
0.0
 11
3.375560760498047
 21
0.3931595555008727
 31
0.0
  0
LINE
  5
14A
330
1F
100
AcDbEntity
  8
Unnamed Level 1
  6
Continuous2
 62
    96
420
    32768
 60
     1
370
    -3
100
AcDbLine
 10
3.406810760498047
 20
0.3723470555008727
 30
0.0
 11
3.375560760498047
 21
0.3931595555008727
 31
0.0
  0
LINE
  5
14B
330
1F
100
AcDbEntity
  8
Unnamed Level 1
  6
Continuous2
 62
    96
420
    32768
 60
     1
370
    -3
100
AcDbLine
 10
3.611164093017578
 20
0.3723470555008727
 30
0.0
 11
3.642414093017578
 21
0.3931595555008727
 31
0.0
  0
LINE
  5
14C
330
1F
100
AcDbEntity
  8
Unnamed Level 1
  6
Continuous2
 62
    96
420
    32768
 60
     1
370
    -3
100
AcDbLine
 10
3.611164093017578
 20
0.4139720555008727
 30
0.0
 11
3.642414093017578
 21
0.3931595555008727
 31
0.0
  0
TEXT
  5
14D
330
1F
100
AcDbEntity
  8
Unnamed Level 1
  6
Continuous2
 62
    96
420
    32768
 60
     1
370
    -3
100
AcDbText
 10
3.373203113032322
 20
0.3306595555008727
 30
0.0
 40
0.125
  1
.267
 41
0.5
  7
MCStick_A0.500000_S0.000000
100
AcDbText
  0
LINE
  5
14E
330
1F
100
AcDbEntity
  8
Unnamed Level 1
  6
Continuous2
 62
    96
420
    32768
 60
     1
370
    -3
100
AcDbLine
 10
3.642164093017577
 20
0.3931595555008727
 30
0.0
 11
3.642414093017578
 21
0.3931595555008727
 31
0.0
  0
LINE
  5
14F
330
1F
100
AcDbEntity
  8
Unnamed Level 1
  6
Continuous2
 62
    96
420
    32768
 60
     1
370
    -3
100
AcDbLine
 10
3.406810760498047
 20
0.4139720555008727
 30
0.0
 11
3.375560760498047
 21
0.3931595555008727
 31
0.0
  0
LINE
  5
150
330
1F
100
AcDbEntity
  8
Unnamed Level 1
  6
Continuous2
 62
    96
420
    32768
 60
     1
370
    -3
100
AcDbLine
 10
3.406810760498047
 20
0.3723470555008727
 30
0.0
 11
3.375560760498047
 21
0.3931595555008727
 31
0.0
  0
LINE
  5
151
330
1F
100
AcDbEntity
  8
Unnamed Level 1
  6
Continuous2
 62
    96
420
    32768
 60
     1
370
    -3
100
AcDbLine
 10
3.611164093017578
 20
0.3723470555008727
 30
0.0
 11
3.642414093017578
 21
0.3931595555008727
 31
0.0
  0
LINE
  5
152
330
1F
100
AcDbEntity
  8
Unnamed Level 1
  6
Continuous2
 62
    96
420
    32768
 60
     1
370
    -3
100
AcDbLine
 10
3.611164093017578
 20
0.4139720555008727
 30
0.0
 11
3.642414093017578
 21
0.3931595555008727
 31
0.0
  0
LINE
  5
153
330
1F
100
AcDbEntity
  8
Unnamed Level 1
  6
Continuous2
 62
    96
420
    32768
 60
     1
370
    -3
100
AcDbLine
 10
3.642414093017578
 20
0.4556595555008727
 30
0.0
 11
3.642414093017578
 21
0.0930709838867188
 31
0.0
  0
LINE
  5
154
330
1F
100
AcDbEntity
  8
Unnamed Level 1
  6
Continuous2
 62
    96
420
    32768
 60
     1
370
    -3
100
AcDbLine
 10
3.406810760498047
 20
0.4139720555008727
 30
0.0
 11
3.375560760498047
 21
0.3931595555008727
 31
0.0
  0
LINE
  5
155
330
1F
100
AcDbEntity
  8
Unnamed Level 1
  6
Continuous2
 62
    96
420
    32768
 60
     1
370
    -3
100
AcDbLine
 10
3.406810760498047
 20
0.3723470555008727
 30
0.0
 11
3.375560760498047
 21
0.3931595555008727
 31
0.0
  0
LINE
  5
156
330
1F
100
AcDbEntity
  8
Unnamed Level 1
  6
Continuous2
 62
    96
420
    32768
 60
     1
370
    -3
100
AcDbLine
 10
3.611164093017578
 20
0.3723470555008727
 30
0.0
 11
3.642414093017578
 21
0.3931595555008727
 31
0.0
  0
LINE
  5
157
330
1F
100
AcDbEntity
  8
Unnamed Level 1
  6
Continuous2
 62
    96
420
    32768
 60
     1
370
    -3
100
AcDbLine
 10
3.611164093017578
 20
0.4139720555008727
 30
0.0
 11
3.642414093017578
 21
0.3931595555008727
 31
0.0
  0
LINE
  5
158
330
1F
100
AcDbEntity
  8
Unnamed Level 1
  6
Continuous2
 62
    96
420
    32768
 60
     1
370
    -3
100
AcDbLine
 10
2.460924525763694
 20
-1.260047912597656
 30
0.0
 11
3.086997985839844
 21
-1.260047912597656
 31
0.0
  0
LINE
  5
159
330
1F
100
AcDbEntity
  8
Unnamed Level 1
  6
Continuous2
 62
    96
420
    32768
 60
     1
370
    -3
100
AcDbLine
 10
2.502612025763694
 20
-1.228797912597656
 30
0.0
 11
2.523424525763694
 21
-1.260047912597656
 31
0.0
  0
LINE
  5
15A
330
1F
100
AcDbEntity
  8
Unnamed Level 1
  6
Continuous2
 62
    96
420
    32768
 60
     1
370
    -3
100
AcDbLine
 10
2.544237025763694
 20
-1.228797912597656
 30
0.0
 11
2.523424525763694
 21
-1.260047912597656
 31
0.0
  0
LINE
  5
15B
330
1F
100
AcDbEntity
  8
Unnamed Level 1
  6
Continuous2
 62
    96
420
    32768
 60
     1
370
    -3
100
AcDbLine
 10
2.544237025763694
 20
-0.0631790161132812
 30
0.0
 11
2.523424525763694
 21
-0.0319290161132812
 31
0.0
  0
LINE
  5
15C
330
1F
100
AcDbEntity
  8
Unnamed Level 1
  6
Continuous2
 62
    96
420
    32768
 60
     1
370
    -3
100
AcDbLine
 10
2.502612025763694
 20
-0.0631790161132812
 30
0.0
 11
2.523424525763694
 21
-0.0319290161132812
 31
0.0
  0
LINE
  5
15D
330
1F
100
AcDbEntity
  8
Unnamed Level 1
  6
Continuous2
 62
    96
420
    32768
 60
     1
370
    -3
100
AcDbLine
 10
2.523424525763694
 20
-0.9101110605093083
 30
0.0
 11
2.523424525763694
 21
-1.260047912597656
 31
0.0
  0
LINE
  5
15E
330
1F
100
AcDbEntity
  8
Unnamed Level 1
  6
Continuous2
 62
    96
420
    32768
 60
     1
370
    -3
100
AcDbLine
 10
2.502612025763694
 20
-1.228797912597656
 30
0.0
 11
2.523424525763694
 21
-1.260047912597656
 31
0.0
  0
LINE
  5
15F
330
1F
100
AcDbEntity
  8
Unnamed Level 1
  6
Continuous2
 62
    96
420
    32768
 60
     1
370
    -3
100
AcDbLine
 10
2.544237025763694
 20
-1.228797912597656
 30
0.0
 11
2.523424525763694
 21
-1.260047912597656
 31
0.0
  0
LINE
  5
160
330
1F
100
AcDbEntity
  8
Unnamed Level 1
  6
Continuous2
 62
    96
420
    32768
 60
     1
370
    -3
100
AcDbLine
 10
2.544237025763694
 20
-0.0631790161132812
 30
0.0
 11
2.523424525763694
 21
-0.0319290161132812
 31
0.0
  0
LINE
  5
161
330
1F
100
AcDbEntity
  8
Unnamed Level 1
  6
Continuous2
 62
    96
420
    32768
 60
     1
370
    -3
100
AcDbLine
 10
2.502612025763694
 20
-0.0631790161132812
 30
0.0
 11
2.523424525763694
 21
-0.0319290161132812
 31
0.0
  0
TEXT
  5
162
330
1F
100
AcDbEntity
  8
Unnamed Level 1
  6
Continuous2
 62
    96
420
    32768
 60
     1
370
    -3
100
AcDbText
 10
2.359576486548008
 20
-0.7084884643554688
 30
0.0
 40
0.125
  1
1.228
 41
0.5
  7
MCStick_A0.500000_S0.000000
100
AcDbText
  0
LINE
  5
163
330
1F
100
AcDbEntity
  8
Unnamed Level 1
  6
Continuous2
 62
    96
420
    32768
 60
     1
370
    -3
100
AcDbLine
 10
2.523424525763694
 20
-0.3818658682016292
 30
0.0
 11
2.523424525763694
 21
-0.0319290161132812
 31
0.0
  0
LINE
  5
164
330
1F
100
AcDbEntity
  8
Unnamed Level 1
  6
Continuous2
 62
    96
420
    32768
 60
     1
370
    -3
100
AcDbLine
 10
2.502612025763694
 20
-1.228797912597656
 30
0.0
 11
2.523424525763694
 21
-1.260047912597656
 31
0.0
  0
LINE
  5
165
330
1F
100
AcDbEntity
  8
Unnamed Level 1
  6
Continuous2
 62
    96
420
    32768
 60
     1
370
    -3
100
AcDbLine
 10
2.544237025763694
 20
-1.228797912597656
 30
0.0
 11
2.523424525763694
 21
-1.260047912597656
 31
0.0
  0
LINE
  5
166
330
1F
100
AcDbEntity
  8
Unnamed Level 1
  6
Continuous2
 62
    96
420
    32768
 60
     1
370
    -3
100
AcDbLine
 10
2.544237025763694
 20
-0.0631790161132812
 30
0.0
 11
2.523424525763694
 21
-0.0319290161132812
 31
0.0
  0
LINE
  5
167
330
1F
100
AcDbEntity
  8
Unnamed Level 1
  6
Continuous2
 62
    96
420
    32768
 60
     1
370
    -3
100
AcDbLine
 10
2.502612025763694
 20
-0.0631790161132812
 30
0.0
 11
2.523424525763694
 21
-0.0319290161132812
 31
0.0
  0
LINE
  5
168
330
1F
100
AcDbEntity
  8
Unnamed Level 1
  6
Continuous2
 62
    96
420
    32768
 60
     1
370
    -3
100
AcDbLine
 10
2.460924525763694
 20
-0.0319290161132812
 30
0.0
 11
3.517414093017578
 21
-0.0319290161132812
 31
0.0
  0
LINE
  5
169
330
1F
100
AcDbEntity
  8
Unnamed Level 1
  6
Continuous2
 62
    96
420
    32768
 60
     1
370
    -3
100
AcDbLine
 10
2.502612025763694
 20
-1.228797912597656
 30
0.0
 11
2.523424525763694
 21
-1.260047912597656
 31
0.0
  0
LINE
  5
16A
330
1F
100
AcDbEntity
  8
Unnamed Level 1
  6
Continuous2
 62
    96
420
    32768
 60
     1
370
    -3
100
AcDbLine
 10
2.544237025763694
 20
-1.228797912597656
 30
0.0
 11
2.523424525763694
 21
-1.260047912597656
 31
0.0
  0
LINE
  5
16B
330
1F
100
AcDbEntity
  8
Unnamed Level 1
  6
Continuous2
 62
    96
420
    32768
 60
     1
370
    -3
100
AcDbLine
 10
2.544237025763694
 20
-0.0631790161132812
 30
0.0
 11
2.523424525763694
 21
-0.0319290161132812
 31
0.0
  0
LINE
  5
16C
330
1F
100
AcDbEntity
  8
Unnamed Level 1
  6
Continuous2
 62
    96
420
    32768
 60
     1
370
    -3
100
AcDbLine
 10
2.502612025763694
 20
-0.0631790161132812
 30
0.0
 11
2.523424525763694
 21
-0.0319290161132812
 31
0.0
  0
LINE
  5
16D
330
1F
100
AcDbEntity
  8
Unnamed Level 1
  6
Continuous2
 62
    96
420
    32768
 60
     1
370
    -3
100
AcDbLine
 10
6.959460908994878
 20
-1.260047912597656
 30
0.0
 11
6.024772644042969
 21
-1.260047912597656
 31
0.0
  0
LINE
  5
16E
330
1F
100
AcDbEntity
  8
Unnamed Level 1
  6
Continuous2
 62
    96
420
    32768
 60
     1
370
    -3
100
AcDbLine
 10
6.876148408994856
 20
-1.22879791259767
 30
0.0
 11
6.896960908994878
 21
-1.260047912597656
 31
0.0
  0
LINE
  5
16F
330
1F
100
AcDbEntity
  8
Unnamed Level 1
  6
Continuous2
 62
    96
420
    32768
 60
     1
370
    -3
100
AcDbLine
 10
6.917773408994856
 20
-1.228797912597642
 30
0.0
 11
6.896960908994878
 21
-1.260047912597656
 31
0.0
  0
LINE
  5
170
330
1F
100
AcDbEntity
  8
Unnamed Level 1
  6
Continuous2
 62
    96
420
    32768
 60
     1
370
    -3
100
AcDbLine
 10
6.917773408994856
 20
-0.803276062011733
 30
0.0
 11
6.896960908994878
 21
-0.7720260620117188
 31
0.0
  0
LINE
  5
171
330
1F
100
AcDbEntity
  8
Unnamed Level 1
  6
Continuous2
 62
    96
420
    32768
 60
     1
370
    -3
100
AcDbLine
 10
6.876148408994856
 20
-0.8032760620117045
 30
0.0
 11
6.896960908994878
 21
-0.7720260620117188
 31
0.0
  0
LINE
  5
172
330
1F
100
AcDbEntity
  8
Unnamed Level 1
  6
Continuous2
 62
    96
420
    32768
 60
     1
370
    -3
100
AcDbLine
 10
6.896960908994878
 20
-1.259797912597662
 30
0.0
 11
6.896960908994878
 21
-1.260047912597656
 31
0.0
  0
LINE
  5
173
330
1F
100
AcDbEntity
  8
Unnamed Level 1
  6
Continuous2
 62
    96
420
    32768
 60
     1
370
    -3
100
AcDbLine
 10
6.876148408994856
 20
-1.22879791259767
 30
0.0
 11
6.896960908994878
 21
-1.260047912597656
 31
0.0
  0
LINE
  5
174
330
1F
100
AcDbEntity
  8
Unnamed Level 1
  6
Continuous2
 62
    96
420
    32768
 60
     1
370
    -3
100
AcDbLine
 10
6.917773408994856
 20
-1.228797912597642
 30
0.0
 11
6.896960908994878
 21
-1.260047912597656
 31
0.0
  0
LINE
  5
175
330
1F
100
AcDbEntity
  8
Unnamed Level 1
  6
Continuous2
 62
    96
420
    32768
 60
     1
370
    -3
100
AcDbLine
 10
6.917773408994856
 20
-0.803276062011733
 30
0.0
 11
6.896960908994878
 21
-0.7720260620117188
 31
0.0
  0
LINE
  5
176
330
1F
100
AcDbEntity
  8
Unnamed Level 1
  6
Continuous2
 62
    96
420
    32768
 60
     1
370
    -3
100
AcDbLine
 10
6.876148408994856
 20
-0.8032760620117045
 30
0.0
 11
6.896960908994878
 21
-0.7720260620117188
 31
0.0
  0
TEXT
  5
177
330
1F
100
AcDbEntity
  8
Unnamed Level 1
  6
Continuous2
 62
    96
420
    32768
 60
     1
370
    -3
100
AcDbText
 10
6.673676595269387
 20
-1.078536987304688
 30
0.0
 40
0.125
  1
Varies
 41
0.5
  7
MCStick_A0.500000_S0.000000
100
AcDbText
  0
LINE
  5
178
330
1F
100
AcDbEntity
  8
Unnamed Level 1
  6
Continuous2
 62
    96
420
    32768
 60
     1
370
    -3
100
AcDbLine
 10
6.896960908994878
 20
-0.7722760620117128
 30
0.0
 11
6.896960908994878
 21
-0.7720260620117188
 31
0.0
  0
LINE
  5
179
330
1F
100
AcDbEntity
  8
Unnamed Level 1
  6
Continuous2
 62
    96
420
    32768
 60
     1
370
    -3
100
AcDbLine
 10
6.876148408994856
 20
-1.22879791259767
 30
0.0
 11
6.896960908994878
 21
-1.260047912597656
 31
0.0
  0
LINE
  5
17A
330
1F
100
AcDbEntity
  8
Unnamed Level 1
  6
Continuous2
 62
    96
420
    32768
 60
     1
370
    -3
100
AcDbLine
 10
6.917773408994856
 20
-1.228797912597642
 30
0.0
 11
6.896960908994878
 21
-1.260047912597656
 31
0.0
  0
LINE
  5
17B
330
1F
100
AcDbEntity
  8
Unnamed Level 1
  6
Continuous2
 62
    96
420
    32768
 60
     1
370
    -3
100
AcDbLine
 10
6.917773408994856
 20
-0.803276062011733
 30
0.0
 11
6.896960908994878
 21
-0.7720260620117188
 31
0.0
  0
LINE
  5
17C
330
1F
100
AcDbEntity
  8
Unnamed Level 1
  6
Continuous2
 62
    96
420
    32768
 60
     1
370
    -3
100
AcDbLine
 10
6.876148408994856
 20
-0.8032760620117045
 30
0.0
 11
6.896960908994878
 21
-0.7720260620117188
 31
0.0
  0
LINE
  5
17D
330
1F
100
AcDbEntity
  8
Unnamed Level 1
  6
Continuous2
 62
    96
420
    32768
 60
     1
370
    -3
100
AcDbLine
 10
6.959460908994878
 20
-0.7720260620117188
 30
0.0
 11
6.399974822998047
 21
-0.7720260620117188
 31
0.0
  0
LINE
  5
17E
330
1F
100
AcDbEntity
  8
Unnamed Level 1
  6
Continuous2
 62
    96
420
    32768
 60
     1
370
    -3
100
AcDbLine
 10
6.876148408994856
 20
-1.22879791259767
 30
0.0
 11
6.896960908994878
 21
-1.260047912597656
 31
0.0
  0
LINE
  5
17F
330
1F
100
AcDbEntity
  8
Unnamed Level 1
  6
Continuous2
 62
    96
420
    32768
 60
     1
370
    -3
100
AcDbLine
 10
6.917773408994856
 20
-1.228797912597642
 30
0.0
 11
6.896960908994878
 21
-1.260047912597656
 31
0.0
  0
LINE
  5
180
330
1F
100
AcDbEntity
  8
Unnamed Level 1
  6
Continuous2
 62
    96
420
    32768
 60
     1
370
    -3
100
AcDbLine
 10
6.917773408994856
 20
-0.803276062011733
 30
0.0
 11
6.896960908994878
 21
-0.7720260620117188
 31
0.0
  0
LINE
  5
181
330
1F
100
AcDbEntity
  8
Unnamed Level 1
  6
Continuous2
 62
    96
420
    32768
 60
     1
370
    -3
100
AcDbLine
 10
6.876148408994856
 20
-0.8032760620117045
 30
0.0
 11
6.896960908994878
 21
-0.7720260620117188
 31
0.0
  0
TEXT
  5
182
330
1F
100
AcDbEntity
  8
Unnamed Level 1
  6
Continuous2
 62
   176
420
      128
370
    -3
100
AcDbText
 10
-5.293898809523809
 20
-5.089285714285643
 30
0.0
 40
0.125
  1
Full Scale
 41
0.625
  7
MCStick_A0.625000_S0.000000
 72
     1
 11
-5.0
 21
-5.124999999999929
 31
0.0
100
AcDbText
 73
     1
  0
TEXT
  5
185
330
1F
100
AcDbEntity
  8
Unnamed Level 1
  6
Continuous2
 62
   176
420
      128
370
    -3
100
AcDbText
 10
-2.773865804730121
 20
-4.339288586186718
 30
0.0
 40
0.125
  1
 RL
 41
0.625
  7
MCStick_A0.625000_S0.000000
 11
-2.773865804730121
 21
-4.375002871901003
 31
0.0
100
AcDbText
 73
     1
  0
TEXT
  5
187
330
1F
100
AcDbEntity
  8
Unnamed Level 1
  6
Continuous2
 62
   176
420
      128
370
    -3
100
AcDbText
 10
-2.773865804730121
 20
-4.089288586186718
 30
0.0
 40
0.125
  1
 7/10/08
 41
0.625
  7
MCStick_A0.625000_S0.000000
 11
-2.773865804730121
 21
-4.125002871901003
 31
0.0
100
AcDbText
 73
     1
  0
TEXT
  5
189
330
1F
100
AcDbEntity
  8
Unnamed Level 1
  6
Continuous2
 62
   176
420
      128
370
    -3
100
AcDbText
 10
-2.77386486530304
 20
-5.089285714285643
 30
0.0
 40
0.125
  1
    of 
 41
0.625
  7
MCStick_A0.625000_S0.000000
 11
-2.77386486530304
 21
-5.124999999999929
 31
0.0
100
AcDbText
 73
     1
  0
TEXT
  5
18B
330
1F
100
AcDbEntity
  8
Unnamed Level 1
  6
Continuous2
 62
   176
420
      128
370
    -3
100
AcDbText
 10
-5.228794642857143
 20
4.375000000000071
 30
0.0
 40
0.125
  1
PR4337
 41
0.625
  7
MCStick_A0.625000_S0.000000
 72
     1
 11
-5.0
 21
4.500000000000071
 31
0.0
100
AcDbText
 73
     3
  0
MTEXT
  5
18D
330
1F
100
AcDbEntity
  8
Unnamed Level 1
  6
Continuous2
 62
   176
420
      128
370
    -3
100
AcDbMText
 10
-4.01452112705007
 20
-5.122009624017325
 30
0.0
 40
0.125
 41
1.756495098039216
 71
     7
 72
     1
  1
         Date:^M\P    Drawn By:^M\PApproved By:^M\PApproved By:^M\P         Page:
  7
MCStick_A0.875000_S0.000000
 73
     1
 44
0.75
  0
TEXT
  5
190
330
1F
100
AcDbEntity
  8
Unnamed Level 1
  6
Continuous2
 62
   176
420
      128
 60
     1
370
    -3
100
AcDbText
 10
4.706101190476191
 20
-5.089285714285643
 30
0.0
 40
0.125
  1
Full Scale
 41
0.625
  7
MCStick_A0.625000_S0.000000
 72
     1
 11
5.0
 21
-5.124999999999929
 31
0.0
100
AcDbText
 73
     1
  0
TEXT
  5
191
330
1F
100
AcDbEntity
  8
Unnamed Level 1
  6
Continuous2
 62
   176
420
      128
 60
     1
370
    -3
100
AcDbText
 10
7.226134195269879
 20
-4.339288586186718
 30
0.0
 40
0.125
  1
 RL
 41
0.625
  7
MCStick_A0.625000_S0.000000
 11
7.226134195269879
 21
-4.375002871901003
 31
0.0
100
AcDbText
 73
     1
  0
TEXT
  5
192
330
1F
100
AcDbEntity
  8
Unnamed Level 1
  6
Continuous2
 62
   176
420
      128
 60
     1
370
    -3
100
AcDbText
 10
7.226134195269879
 20
-4.089288586186718
 30
0.0
 40
0.125
  1
 7/11/08
 41
0.625
  7
MCStick_A0.625000_S0.000000
 11
7.226134195269879
 21
-4.125002871901003
 31
0.0
100
AcDbText
 73
     1
  0
TEXT
  5
193
330
1F
100
AcDbEntity
  8
Unnamed Level 1
  6
Continuous2
 62
   176
420
      128
 60
     1
370
    -3
100
AcDbText
 10
7.22613513469696
 20
-5.089285714285643
 30
0.0
 40
0.125
  1
    of 
 41
0.625
  7
MCStick_A0.625000_S0.000000
 11
7.22613513469696
 21
-5.124999999999929
 31
0.0
100
AcDbText
 73
     1
  0
TEXT
  5
194
330
1F
100
AcDbEntity
  8
Unnamed Level 1
  6
Continuous2
 62
   176
420
      128
 60
     1
370
    -3
100
AcDbText
 10
4.771205357142857
 20
4.375000000000071
 30
0.0
 40
0.125
  1
FM6095
 41
0.625
  7
MCStick_A0.625000_S0.000000
 72
     1
 11
5.0
 21
4.500000000000071
 31
0.0
100
AcDbText
 73
     3
  0
MTEXT
  5
195
330
1F
100
AcDbEntity
  8
Unnamed Level 1
  6
Continuous2
 62
   176
420
      128
 60
     1
370
    -3
100
AcDbMText
 10
5.98547887294993
 20
-5.122009624017325
 30
0.0
 40
0.125
 41
1.756495098039216
 71
     7
 72
     1
  1
         Date:^M\P    Drawn By:^M\PApproved By:^M\PApproved By:^M\P         Page:
  7
MCStick_A0.875000_S0.000000
 73
     1
 44
0.75
  0
TEXT
  5
196
330
1F
100
AcDbEntity
  8
Unnamed Level 1
  6
Continuous2
 62
    96
420
    32768
 60
     1
370
    -3
100
AcDbText
 10
4.524970622796708
 20
3.447356051703878
 30
0.0
 40
0.125
  1
Part #1
 41
0.625
  7
MCStick_A0.625000_S0.000000
100
AcDbText
  0
MTEXT
  5
197
330
1F
100
AcDbEntity
  8
Unnamed Level 1
  6
Continuous2
 62
    96
420
    32768
 60
     1
370
    -3
100
AcDbMText
 10
3.873501762632195
 20
-3.573271617666994
 30
0.0
 40
0.125
 41
3.291176470588235
 71
     7
 72
     1
  1
* Make sure that the^M\P  1.813 dem is maintained ^M\P  after glueing.
  7
MCStick_A0.875000_S0.000000
 73
     1
 44
0.75
  0
TEXT
  5
198
330
1F
100
AcDbEntity
  8
Unnamed Level 1
  6
Continuous2
 62
    96
420
    32768
 60
     1
370
    -3
100
AcDbText
 10
4.33495887191539
 20
0.3686251468860178
 30
0.0
 40
0.125
  1
Part #2
 41
0.625
  7
MCStick_A0.625000_S0.000000
100
AcDbText
  0
LINE
  5
199
330
1F
100
AcDbEntity
  8
Unnamed Level 1
  6
Continuous2
 62
    18
420
        0
370
    -3
100
AcDbLine
 10
-5.003952549296198
 20
0.8531338713507928
 30
0.0
 11
-5.003952549296225
 21
-0.4432612819825714
 31
0.0
  0
LINE
  5
19A
330
1F
100
AcDbEntity
  8
Unnamed Level 1
  6
Continuous2
 62
    18
420
        0
370
    -3
100
AcDbLine
 10
-5.711257406550242
 20
1.913441040766656
 30
0.0
 11
-5.711257406550255
 21
-0.7743313946252075
 31
0.0
  0
LINE
  5
19B
330
1F
100
AcDbEntity
  8
Unnamed Level 1
  6
Continuous2
 62
    18
420
        0
370
    -3
100
AcDbLine
 10
-4.860139027432634
 20
1.749877869061934
 30
0.0
 11
-3.898426340418662
 21
1.749877869061935
 31
0.0
  0
LINE
  5
19C
330
1F
100
AcDbEntity
  8
Unnamed Level 1
  6
Continuous2
 62
    18
420
        0
370
    -3
100
AcDbLine
 10
-4.12206511338314
 20
1.410032046952553
 30
0.0
 11
-4.12206511338314
 21
1.532228394152627
 31
0.0
  0
ARC
  5
19D
330
1F
100
AcDbEntity
  8
Unnamed Level 1
  6
Continuous2
 62
    18
420
        0
370
    -3
100
AcDbCircle
 10
-4.205060346528748
 20
1.932257482743692
 30
0.0
 40
0.408548014857352
100
AcDbArc
 50
281.7210375660279
 51
309.8347714063708
  0
LINE
  5
19E
330
1F
100
AcDbEntity
  8
Unnamed Level 1
  6
Continuous2
 62
    18
420
        0
370
    -3
100
AcDbLine
 10
-3.898426340418648
 20
1.714522403911831
 30
0.0
 11
-3.898426340418662
 21
1.749877869061935
 31
0.0
  0
ARC
  5
19F
330
1F
100
AcDbEntity
  8
Unnamed Level 1
  6
Continuous2
 62
    18
420
        0
370
    -3
100
AcDbCircle
 10
-4.987052746270396
 20
1.233365509892077
 30
0.0
 40
0.2773398087290208
100
AcDbArc
 50
297.2744236892355
 51
339.2712503261532
  0
ARC
  5
1A0
330
1F
100
AcDbEntity
  8
Unnamed Level 1
  6
Continuous2
 62
    18
420
        0
370
    -3
100
AcDbCircle
 10
-5.004230769326665
 20
0.9978190317696114
 30
0.0
 40
0.1446854279179725
100
AcDbArc
 50
270.1101758730888
 51
355.6559647612595
  0
ARC
  5
1A1
330
1F
100
AcDbEntity
  8
Unnamed Level 1
  6
Continuous2
 62
    18
420
        0
370
    -3
100
AcDbCircle
 10
-4.747819569320355
 20
1.717477435409263
 30
0.0
 40
0.1414415770393424
100
AcDbArc
 50
13.24249624026489
 51
84.99999942962823
  0
LINE
  5
1A2
330
1F
100
AcDbEntity
  8
Unnamed Level 1
  6
Continuous2
 62
    18
420
        0
370
    -3
100
AcDbLine
 10
-4.735492122215415
 20
1.858380784422878
 30
0.0
 11
-4.778003556642713
 21
1.862100053431917
 31
0.0
  0
LINE
  5
1A3
330
1F
100
AcDbEntity
  8
Unnamed Level 1
  6
Continuous2
 62
    18
420
        0
370
    -3
100
AcDbLine
 10
-4.467499946604587
 20
1.483024261197557
 30
0.0
 11
-4.860139106760837
 21
1.483024261197557
 31
0.0
  0
LINE
  5
1A4
330
1F
100
AcDbEntity
  8
Unnamed Level 1
  6
Continuous2
 62
    18
420
        0
370
    -3
100
AcDbLine
 10
-4.860139106760837
 20
1.749877593717088
 30
0.0
 11
-4.860139106760837
 21
1.483024261197557
 31
0.0
  0
LINE
  5
1A5
330
1F
100
AcDbEntity
  8
Unnamed Level 1
  6
Continuous2
 62
    18
420
        0
370
    -3
100
AcDbLine
 10
-4.636287549035
 20
1.206578999570298
 30
0.0
 11
-4.483134837807764
 21
1.483024261197557
 31
0.0
  0
LINE
  5
1A6
330
1F
100
AcDbEntity
  8
Unnamed Level 1
  6
Continuous2
 62
    18
420
        0
370
    -3
100
AcDbLine
 10
-4.141775131622421
 20
1.394943960554089
 30
0.0
 11
-4.467499946604587
 21
1.483024261197557
 31
0.0
  0
ARC
  5
1A7
330
1F
100
AcDbEntity
  8
Unnamed Level 1
  6
Continuous2
 62
    18
420
        0
370
    -3
100
AcDbCircle
 10
-4.765972090467695
 20
1.278425190775624
 30
0.0
 40
0.1482563842717108
100
AcDbArc
 50
284.9752812419232
 51
331.0132242521965
  0
ARC
  5
1A8
330
1F
100
AcDbEntity
  8
Unnamed Level 1
  6
Continuous2
 62
    18
420
        0
370
    -3
100
AcDbCircle
 10
-4.02342634041862
 20
1.714522403911829
 30
0.0
 40
0.1249999999999989
100
AcDbArc
 50
309.8347714063704
 51
359.9999999999972
  0
ARC
  5
1A9
330
1F
100
AcDbEntity
  8
Unnamed Level 1
  6
Continuous2
 62
    18
420
        0
370
    -3
100
AcDbCircle
 10
-4.137695113383143
 20
1.410032046952553
 30
0.0
 40
0.0156299999999996
100
AcDbArc
 50
254.8683593484238
 51
359.9999999999996
  0
LINE
  5
1AA
330
1F
100
AcDbEntity
  8
Unnamed Level 1
  6
Continuous2
 62
    18
420
        0
370
    -3
100
AcDbLine
 10
-5.060847715632161
 20
2.008196763333786
 30
0.0
 11
-4.986064819179714
 21
2.008196763333786
 31
0.0
  0
ARC
  5
1AB
330
1F
100
AcDbEntity
  8
Unnamed Level 1
  6
Continuous2
 62
    18
420
        0
370
    -3
100
AcDbCircle
 10
-5.154592321711387
 20
2.007191113767135
 30
0.0
 40
0.0937500000000004
100
AcDbArc
 50
0.6146195297295968
 51
90.0000000000085
  0
ARC
  5
1AC
330
1F
100
AcDbEntity
  8
Unnamed Level 1
  6
Continuous2
 62
    18
420
        0
370
    -3
100
AcDbCircle
 10
-4.987866783183658
 20
1.784428632388257
 30
0.0
 40
0.2237753862718744
100
AcDbArc
 50
20.30976314080073
 51
89.53861749582983
  0
LINE
  5
1AD
330
1F
100
AcDbEntity
  8
Unnamed Level 1
  6
Continuous2
 62
    18
420
        0
370
    -3
100
AcDbLine
 10
-5.154592321711402
 20
2.100941113767136
 30
0.0
 11
-5.523757406550257
 21
2.100941113767136
 31
0.0
  0
ARC
  5
1AE
330
1F
100
AcDbEntity
  8
Unnamed Level 1
  6
Continuous2
 62
    18
420
        0
370
    -3
100
AcDbCircle
 10
-5.523757406550254
 20
1.913441113767132
 30
0.0
 40
0.1875000000000032
100
AcDbArc
 50
90.00000000000082
 51
180.0000223073021
  0
LINE
  5
1AF
330
1F
100
AcDbEntity
  8
Unnamed Level 1
  6
Continuous2
 62
    18
420
        0
370
    -3
100
AcDbLine
 10
-5.223232196169713
 20
-0.7743313946252066
 30
0.0
 11
-5.223232196169699
 21
-1.149535252047073
 31
0.0
  0
LINE
  5
1B0
330
1F
100
AcDbEntity
  8
Unnamed Level 1
  6
Continuous2
 62
    18
420
        0
370
    -3
100
AcDbLine
 10
-5.066789553957785
 20
-1.149535252047073
 30
0.0
 11
-5.223232196169699
 21
-1.149535252047073
 31
0.0
  0
LINE
  5
1B1
330
1F
100
AcDbEntity
  8
Unnamed Level 1
  6
Continuous2
 62
    18
420
        0
370
    -3
100
AcDbLine
 10
-5.066789553957785
 20
-1.149535252047073
 30
0.0
 11
-5.066789553957785
 21
-1.046936336837063
 31
0.0
  0
LINE
  5
1B2
330
1F
100
AcDbEntity
  8
Unnamed Level 1
  6
Continuous2
 62
    18
420
        0
370
    -3
100
AcDbLine
 10
-5.223232196169699
 20
-0.7743313946252066
 30
0.0
 11
-5.71125740655024
 21
-0.7743313946252075
 31
0.0
  0
ARC
  5
1B3
330
1F
100
AcDbEntity
  8
Unnamed Level 1
  6
Continuous2
 62
    18
420
        0
370
    -3
100
AcDbCircle
 10
-4.910202549296084
 20
-0.4432612819825787
 30
0.0
 40
0.0937499999999992
100
AcDbArc
 50
179.9999999999954
 51
255.0883836190472
  0
ARC
  5
1B4
330
1F
100
AcDbEntity
  8
Unnamed Level 1
  6
Continuous2
 62
    18
420
        0
370
    -3
100
AcDbCircle
 10
-6.789058335831701
 20
-7.49876343651191
 30
0.0
 40
7.207634096126317
100
AcDbArc
 50
74.40423793865556
 51
75.0883836190455
  0
ARC
  5
1B5
330
1F
100
AcDbEntity
  8
Unnamed Level 1
  6
Continuous2
 62
    18
420
        0
370
    -3
100
AcDbCircle
 10
-4.89665593528442
 20
-0.7190036194389242
 30
0.0
 40
0.1687186951007763
100
AcDbArc
 50
21.32880265348897
 51
74.40423793865246
  0
ARC
  5
1B6
330
1F
100
AcDbEntity
  8
Unnamed Level 1
  6
Continuous2
 62
    18
420
        0
370
    -3
100
AcDbCircle
 10
-5.072673359849599
 20
-0.9115066183933187
 30
0.0
 40
0.1355574705042901
100
AcDbArc
 50
272.4876768927597
 51
296.2946453213077
  0
ARC
  5
1B7
330
1F
100
AcDbEntity
  8
Unnamed Level 1
  6
Continuous2
 62
    18
420
        0
370
    -3
100
AcDbCircle
 10
-5.067029673593646
 20
-0.9229284370435435
 30
0.0
 40
0.1228174102283658
100
AcDbArc
 50
296.2946453213083
 51
333.6468404599017
  0
ARC
  5
1B8
330
1F
100
AcDbEntity
  8
Unnamed Level 1
  6
Continuous2
 62
    18
420
        0
370
    -3
100
AcDbCircle
 10
-4.676952686871704
 20
-1.116167129022827
 30
0.0
 40
0.3125000000000098
100
AcDbArc
 50
114.4233538437784
 51
153.6468223434627
  0
ARC
  5
1B9
330
1F
100
AcDbEntity
  8
Unnamed Level 1
  6
Continuous2
 62
    18
420
        0
370
    -3
100
AcDbCircle
 10
-4.868455105865004
 20
-0.7079922407323439
 30
0.0
 40
0.1384443290304027
100
AcDbArc
 50
296.7388568751355
 51
21.32880265349136
  0
LINE
  5
1BA
330
1F
100
AcDbEntity
  8
Unnamed Level 1
  6
Continuous2
 62
     5
420
      255
370
    -3
100
AcDbLine
 10
-6.754690333258351
 20
-1.149535252047071
 30
0.0
 11
-5.648232196169698
 21
-1.149535252047072
 31
0.0
  0
LINE
  5
1BB
330
1F
100
AcDbEntity
  8
Unnamed Level 1
  6
Continuous2
 62
     5
420
      255
370
    -3
100
AcDbLine
 10
-6.71300283325835
 20
-1.11828525204707
 30
0.0
 11
-6.692190333258351
 21
-1.149535252047071
 31
0.0
  0
LINE
  5
1BC
330
1F
100
AcDbEntity
  8
Unnamed Level 1
  6
Continuous2
 62
     5
420
      255
370
    -3
100
AcDbLine
 10
-6.67137783325835
 20
-1.118285252047072
 30
0.0
 11
-6.692190333258351
 21
-1.149535252047071
 31
0.0
  0
LINE
  5
1BD
330
1F
100
AcDbEntity
  8
Unnamed Level 1
  6
Continuous2
 62
     5
420
      255
370
    -3
100
AcDbLine
 10
-6.671377833258348
 20
2.069691113767137
 30
0.0
 11
-6.692190333258349
 21
2.100941113767136
 31
0.0
  0
LINE
  5
1BE
330
1F
100
AcDbEntity
  8
Unnamed Level 1
  6
Continuous2
 62
     5
420
      255
370
    -3
100
AcDbLine
 10
-6.713002833258348
 20
2.069691113767136
 30
0.0
 11
-6.692190333258349
 21
2.100941113767136
 31
0.0
  0
LINE
  5
1BF
330
1F
100
AcDbEntity
  8
Unnamed Level 1
  6
Continuous2
 62
     5
420
      255
370
    -3
100
AcDbLine
 10
-6.69219033325835
 20
0.2115803347061864
 30
0.0
 11
-6.692190333258351
 21
-1.149535252047071
 31
0.0
  0
LINE
  5
1C0
330
1F
100
AcDbEntity
  8
Unnamed Level 1
  6
Continuous2
 62
     5
420
      255
370
    -3
100
AcDbLine
 10
-6.71300283325835
 20
-1.11828525204707
 30
0.0
 11
-6.692190333258351
 21
-1.149535252047071
 31
0.0
  0
LINE
  5
1C1
330
1F
100
AcDbEntity
  8
Unnamed Level 1
  6
Continuous2
 62
     5
420
      255
370
    -3
100
AcDbLine
 10
-6.67137783325835
 20
-1.118285252047072
 30
0.0
 11
-6.692190333258351
 21
-1.149535252047071
 31
0.0
  0
LINE
  5
1C2
330
1F
100
AcDbEntity
  8
Unnamed Level 1
  6
Continuous2
 62
     5
420
      255
370
    -3
100
AcDbLine
 10
-6.671377833258348
 20
2.069691113767137
 30
0.0
 11
-6.692190333258349
 21
2.100941113767136
 31
0.0
  0
LINE
  5
1C3
330
1F
100
AcDbEntity
  8
Unnamed Level 1
  6
Continuous2
 62
     5
420
      255
370
    -3
100
AcDbLine
 10
-6.713002833258348
 20
2.069691113767136
 30
0.0
 11
-6.692190333258349
 21
2.100941113767136
 31
0.0
  0
TEXT
  5
1C4
330
1F
100
AcDbEntity
  8
Unnamed Level 1
  6
Continuous2
 62
     5
420
      255
370
    -3
100
AcDbText
 10
-6.898317784238742
 20
0.4132029308600331
 30
0.0
 40
0.125
  1
3 1/4"
 41
0.5
  7
MCStick_A0.500000_S0.000000
100
AcDbText
  0
LINE
  5
1C5
330
1F
100
AcDbEntity
  8
Unnamed Level 1
  6
Continuous2
 62
     5
420
      255
370
    -3
100
AcDbLine
 10
-6.69219033325835
 20
0.7398255270138798
 30
0.0
 11
-6.692190333258349
 21
2.100941113767136
 31
0.0
  0
LINE
  5
1C6
330
1F
100
AcDbEntity
  8
Unnamed Level 1
  6
Continuous2
 62
     5
420
      255
370
    -3
100
AcDbLine
 10
-6.71300283325835
 20
-1.11828525204707
 30
0.0
 11
-6.692190333258351
 21
-1.149535252047071
 31
0.0
  0
LINE
  5
1C7
330
1F
100
AcDbEntity
  8
Unnamed Level 1
  6
Continuous2
 62
     5
420
      255
370
    -3
100
AcDbLine
 10
-6.67137783325835
 20
-1.118285252047072
 30
0.0
 11
-6.692190333258351
 21
-1.149535252047071
 31
0.0
  0
LINE
  5
1C8
330
1F
100
AcDbEntity
  8
Unnamed Level 1
  6
Continuous2
 62
     5
420
      255
370
    -3
100
AcDbLine
 10
-6.671377833258348
 20
2.069691113767137
 30
0.0
 11
-6.692190333258349
 21
2.100941113767136
 31
0.0
  0
LINE
  5
1C9
330
1F
100
AcDbEntity
  8
Unnamed Level 1
  6
Continuous2
 62
     5
420
      255
370
    -3
100
AcDbLine
 10
-6.713002833258348
 20
2.069691113767136
 30
0.0
 11
-6.692190333258349
 21
2.100941113767136
 31
0.0
  0
LINE
  5
1CA
330
1F
100
AcDbEntity
  8
Unnamed Level 1
  6
Continuous2
 62
     5
420
      255
370
    -3
100
AcDbLine
 10
-6.754690333258349
 20
2.100941113767136
 30
0.0
 11
-5.948757406550256
 21
2.100941113767135
 31
0.0
  0
LINE
  5
1CB
330
1F
100
AcDbEntity
  8
Unnamed Level 1
  6
Continuous2
 62
     5
420
      255
370
    -3
100
AcDbLine
 10
-6.71300283325835
 20
-1.11828525204707
 30
0.0
 11
-6.692190333258351
 21
-1.149535252047071
 31
0.0
  0
LINE
  5
1CC
330
1F
100
AcDbEntity
  8
Unnamed Level 1
  6
Continuous2
 62
     5
420
      255
370
    -3
100
AcDbLine
 10
-6.67137783325835
 20
-1.118285252047072
 30
0.0
 11
-6.692190333258351
 21
-1.149535252047071
 31
0.0
  0
LINE
  5
1CD
330
1F
100
AcDbEntity
  8
Unnamed Level 1
  6
Continuous2
 62
     5
420
      255
370
    -3
100
AcDbLine
 10
-6.671377833258348
 20
2.069691113767137
 30
0.0
 11
-6.692190333258349
 21
2.100941113767136
 31
0.0
  0
LINE
  5
1CE
330
1F
100
AcDbEntity
  8
Unnamed Level 1
  6
Continuous2
 62
     5
420
      255
370
    -3
100
AcDbLine
 10
-6.713002833258348
 20
2.069691113767136
 30
0.0
 11
-6.692190333258349
 21
2.100941113767136
 31
0.0
  0
LINE
  5
1CF
330
1F
100
AcDbEntity
  8
Unnamed Level 1
  6
Continuous2
 62
     5
420
      255
370
    -3
100
AcDbLine
 10
-5.71125740655024
 20
-1.836958589830192
 30
0.0
 11
-5.71125740655024
 21
-1.199331394625208
 31
0.0
  0
LINE
  5
1D0
330
1F
100
AcDbEntity
  8
Unnamed Level 1
  6
Continuous2
 62
     5
420
      255
370
    -3
100
AcDbLine
 10
-5.68000740655024
 20
-1.753646089830192
 30
0.0
 11
-5.71125740655024
 21
-1.774458589830192
 31
0.0
  0
LINE
  5
1D1
330
1F
100
AcDbEntity
  8
Unnamed Level 1
  6
Continuous2
 62
     5
420
      255
370
    -3
100
AcDbLine
 10
-5.68000740655024
 20
-1.795271089830192
 30
0.0
 11
-5.71125740655024
 21
-1.774458589830192
 31
0.0
  0
LINE
  5
1D2
330
1F
100
AcDbEntity
  8
Unnamed Level 1
  6
Continuous2
 62
     5
420
      255
370
    -3
100
AcDbLine
 10
-3.929676340418662
 20
-1.795271089830192
 30
0.0
 11
-3.898426340418662
 21
-1.774458589830192
 31
0.0
  0
LINE
  5
1D3
330
1F
100
AcDbEntity
  8
Unnamed Level 1
  6
Continuous2
 62
     5
420
      255
370
    -3
100
AcDbLine
 10
-3.929676340418662
 20
-1.753646089830192
 30
0.0
 11
-3.898426340418662
 21
-1.774458589830192
 31
0.0
  0
LINE
  5
1D4
330
1F
100
AcDbEntity
  8
Unnamed Level 1
  6
Continuous2
 62
     5
420
      255
370
    -3
100
AcDbLine
 10
-5.254596775445236
 20
-1.774458589830192
 30
0.0
 11
-5.71125740655024
 21
-1.774458589830192
 31
0.0
  0
LINE
  5
1D5
330
1F
100
AcDbEntity
  8
Unnamed Level 1
  6
Continuous2
 62
     5
420
      255
370
    -3
100
AcDbLine
 10
-5.68000740655024
 20
-1.753646089830192
 30
0.0
 11
-5.71125740655024
 21
-1.774458589830192
 31
0.0
  0
LINE
  5
1D6
330
1F
100
AcDbEntity
  8
Unnamed Level 1
  6
Continuous2
 62
     5
420
      255
370
    -3
100
AcDbLine
 10
-5.68000740655024
 20
-1.795271089830192
 30
0.0
 11
-5.71125740655024
 21
-1.774458589830192
 31
0.0
  0
LINE
  5
1D7
330
1F
100
AcDbEntity
  8
Unnamed Level 1
  6
Continuous2
 62
     5
420
      255
370
    -3
100
AcDbLine
 10
-3.929676340418662
 20
-1.795271089830192
 30
0.0
 11
-3.898426340418662
 21
-1.774458589830192
 31
0.0
  0
LINE
  5
1D8
330
1F
100
AcDbEntity
  8
Unnamed Level 1
  6
Continuous2
 62
     5
420
      255
370
    -3
100
AcDbLine
 10
-3.929676340418662
 20
-1.753646089830192
 30
0.0
 11
-3.898426340418662
 21
-1.774458589830192
 31
0.0
  0
TEXT
  5
1D9
330
1F
100
AcDbEntity
  8
Unnamed Level 1
  6
Continuous2
 62
     5
420
      255
370
    -3
100
AcDbText
 10
-5.067096775445236
 20
-1.836958589830192
 30
0.0
 40
0.125
  1
1 13/16"
 41
0.5
  7
MCStick_A0.500000_S0.000000
100
AcDbText
  0
LINE
  5
1DA
330
1F
100
AcDbEntity
  8
Unnamed Level 1
  6
Continuous2
 62
     5
420
      255
370
    -3
100
AcDbLine
 10
-4.355086971523667
 20
-1.774458589830192
 30
0.0
 11
-3.898426340418662
 21
-1.774458589830192
 31
0.0
  0
LINE
  5
1DB
330
1F
100
AcDbEntity
  8
Unnamed Level 1
  6
Continuous2
 62
     5
420
      255
370
    -3
100
AcDbLine
 10
-5.68000740655024
 20
-1.753646089830192
 30
0.0
 11
-5.71125740655024
 21
-1.774458589830192
 31
0.0
  0
LINE
  5
1DC
330
1F
100
AcDbEntity
  8
Unnamed Level 1
  6
Continuous2
 62
     5
420
      255
370
    -3
100
AcDbLine
 10
-5.68000740655024
 20
-1.795271089830192
 30
0.0
 11
-5.71125740655024
 21
-1.774458589830192
 31
0.0
  0
LINE
  5
1DD
330
1F
100
AcDbEntity
  8
Unnamed Level 1
  6
Continuous2
 62
     5
420
      255
370
    -3
100
AcDbLine
 10
-3.929676340418662
 20
-1.795271089830192
 30
0.0
 11
-3.898426340418662
 21
-1.774458589830192
 31
0.0
  0
LINE
  5
1DE
330
1F
100
AcDbEntity
  8
Unnamed Level 1
  6
Continuous2
 62
     5
420
      255
370
    -3
100
AcDbLine
 10
-3.929676340418662
 20
-1.753646089830192
 30
0.0
 11
-3.898426340418662
 21
-1.774458589830192
 31
0.0
  0
LINE
  5
1DF
330
1F
100
AcDbEntity
  8
Unnamed Level 1
  6
Continuous2
 62
     5
420
      255
370
    -3
100
AcDbLine
 10
-3.898426340418662
 20
-1.836958589830192
 30
0.0
 11
-3.898426340418662
 21
1.324877869061935
 31
0.0
  0
LINE
  5
1E0
330
1F
100
AcDbEntity
  8
Unnamed Level 1
  6
Continuous2
 62
     5
420
      255
370
    -3
100
AcDbLine
 10
-5.68000740655024
 20
-1.753646089830192
 30
0.0
 11
-5.71125740655024
 21
-1.774458589830192
 31
0.0
  0
LINE
  5
1E1
330
1F
100
AcDbEntity
  8
Unnamed Level 1
  6
Continuous2
 62
     5
420
      255
370
    -3
100
AcDbLine
 10
-5.68000740655024
 20
-1.795271089830192
 30
0.0
 11
-5.71125740655024
 21
-1.774458589830192
 31
0.0
  0
LINE
  5
1E2
330
1F
100
AcDbEntity
  8
Unnamed Level 1
  6
Continuous2
 62
     5
420
      255
370
    -3
100
AcDbLine
 10
-3.929676340418662
 20
-1.795271089830192
 30
0.0
 11
-3.898426340418662
 21
-1.774458589830192
 31
0.0
  0
LINE
  5
1E3
330
1F
100
AcDbEntity
  8
Unnamed Level 1
  6
Continuous2
 62
     5
420
      255
370
    -3
100
AcDbLine
 10
-3.929676340418662
 20
-1.753646089830192
 30
0.0
 11
-3.898426340418662
 21
-1.774458589830192
 31
0.0
  0
VIEWPORT
  5
1E4
102
{ACAD_XDICTIONARY
360
1E6
102
}
330
23
100
AcDbEntity
 67
     1
  8
0
100
AcDbViewport
 10
5.25
 20
4.0
 30
0.0
 40
11.638
 41
8.993
 68
     1
 69
     1
 12
5.25
 22
4.0
 13
0.0
 23
0.0
 14
0.5
 24
0.5
 15
0.5
 25
0.5
 16
0.0
 26
0.0
 36
1.0
 17
0.0
 27
0.0
 37
0.0
 42
50.0
 43
0.0
 44
0.0
 45
8.993
 50
0.0
 51
0.0
 72
   100
 90
   557152
  1

281
     0
 71
     1
 74
     0
110
0.0
120
0.0
130
0.0
111
1.0
121
0.0
131
0.0
112
0.0
122
1.0
132
0.0
 79
     0
146
0.0
170
     0
  0
ENDSEC
  0
SECTION
  2
OBJECTS
  0
DICTIONARY
  5
C
330
0
100
AcDbDictionary
281
     1
  3
ACAD_DETAILVIEWSTYLE
350
22D
  3
ACAD_GROUP
350
D
  3
ACAD_LAYOUT
350
1A
  3
ACAD_MATERIAL
350
43
  3
ACAD_MLEADERSTYLE
350
6B
  3
ACAD_MLINESTYLE
350
17
  3
ACAD_PLOTSETTINGS
350
19
  3
ACAD_PLOTSTYLENAME
350
E
  3
ACAD_SCALELIST
350
47
  3
ACAD_SECTIONVIEWSTYLE
350
22E
  3
ACAD_TABLESTYLE
350
69
  3
ACAD_VISUALSTYLE
350
2A
  3
ACDB_RECOMPOSE_DATA
350
22A
  3
AcDbVariableDictionary
350
1EA
  0
DICTIONARY
  5
1E8
330
8
100
AcDbDictionary
280
     1
281
     1
  3
ACAD_XREC_ROUNDTRIP
360
1E9
  0
DICTIONARY
  5
1E6
330
1E4
100
AcDbDictionary
280
     1
281
     1
  3
ACAD_XREC_ROUNDTRIP
360
1E7
  0
DICTIONARY
  5
22D
102
{ACAD_REACTORS
330
C
102
}
330
C
100
AcDbDictionary
281
     1
  0
DICTIONARY
  5
D
102
{ACAD_REACTORS
330
C
102
}
330
C
100
AcDbDictionary
281
     1
  0
DICTIONARY
  5
1A
102
{ACAD_REACTORS
330
C
102
}
330
C
100
AcDbDictionary
281
     1
  3
Layout2
350
26
  3
Model
350
22
  0
DICTIONARY
  5
43
102
{ACAD_REACTORS
330
C
102
}
330
C
100
AcDbDictionary
281
     1
  3
ByBlock
350
45
  3
ByLayer
350
44
  3
Global
350
46
  0
DICTIONARY
  5
6B
102
{ACAD_REACTORS
330
C
102
}
330
C
100
AcDbDictionary
281
     1
  3
Standard
350
6C
  0
DICTIONARY
  5
17
102
{ACAD_REACTORS
330
C
102
}
330
C
100
AcDbDictionary
281
     1
  3
Standard
350
18
  0
DICTIONARY
  5
19
102
{ACAD_REACTORS
330
C
102
}
330
C
100
AcDbDictionary
281
     1
  0
ACDBDICTIONARYWDFLT
  5
E
102
{ACAD_REACTORS
330
C
102
}
330
C
100
AcDbDictionary
281
     1
  3
Normal
350
F
100
AcDbDictionaryWithDefault
340
F
  0
DICTIONARY
  5
47
102
{ACAD_REACTORS
330
C
102
}
330
C
100
AcDbDictionary
281
     1
  3
A0
350
48
  3
A1
350
49
  3
A2
350
4A
  3
A3
350
4B
  3
A4
350
4C
  3
A5
350
4D
  3
A6
350
4E
  3
A7
350
4F
  3
A8
350
50
  3
A9
350
51
  3
B0
350
52
  3
B1
350
53
  3
B2
350
54
  3
B3
350
55
  3
B4
350
56
  3
B5
350
57
  3
B6
350
58
  3
B7
350
59
  3
B8
350
5A
  3
B9
350
5B
  3
C0
350
5C
  3
C1
350
5D
  3
C2
350
5E
  3
C3
350
5F
  3
C4
350
60
  3
C5
350
61
  3
C6
350
62
  3
C7
350
63
  3
C8
350
64
  3
C9
350
65
  3
D0
350
66
  3
D1
350
67
  3
D2
350
68
  0
DICTIONARY
  5
22E
102
{ACAD_REACTORS
330
C
102
}
330
C
100
AcDbDictionary
281
     1
  0
DICTIONARY
  5
69
102
{ACAD_REACTORS
330
C
102
}
330
C
100
AcDbDictionary
281
     1
  3
Standard
350
6A
  0
DICTIONARY
  5
2A
102
{ACAD_REACTORS
330
C
102
}
330
C
100
AcDbDictionary
281
     1
  3
2dWireframe
350
2F
  3
Basic
350
32
  3
Brighten
350
36
  3
ColorChange
350
3A
  3
Conceptual
350
34
  3
Dim
350
35
  3
EdgeColorOff
350
3D
  3
Facepattern
350
39
  3
Flat
350
2B
  3
FlatWithEdges
350
2C
  3
Gouraud
350
2D
  3
GouraudWithEdges
350
2E
  3
Hidden
350
31
  3
JitterOff
350
3B
  3
Linepattern
350
38
  3
OverhangOff
350
3C
  3
Realistic
350
33
  3
Shaded
350
42
  3
Shaded with edges
350
41
  3
Shades of Gray
350
3E
  3
Sketchy
350
3F
  3
Thicken
350
37
  3
Wireframe
350
30
  3
X-Ray
350
40
  0
XRECORD
  5
22A
102
{ACAD_REACTORS
330
C
102
}
330
C
100
AcDbXrecord
280
     1
 90
        1
330
6A
  0
DICTIONARY
  5
1EA
102
{ACAD_REACTORS
330
C
102
}
330
C
100
AcDbDictionary
281
     1
  3
CANNOSCALE
350
1EB
  3
CMLEADERSTYLE
350
22C
  3
CTABLESTYLE
350
22B
  3
MSLTSCALE
350
1EC
  3
XCLIPFRAME
350
1ED
  0
XRECORD
  5
1E9
102
{ACAD_REACTORS
330
1E8
102
}
330
1E8
100
AcDbXrecord
280
     1
102
VTR_0.000_0.000_1.000_1.000_VISUALSTYLE
340
2F
102
VTR_0.000_0.000_1.000_1.000_GRIDDISPLAY
 70
     3
102
VTR_0.000_0.000_1.000_1.000_GRIDMAJOR
 70
     5
102
VTR_0.000_0.000_1.000_1.000_DEFAULTLIGHTING
280
     1
102
VTR_0.000_0.000_1.000_1.000_DEFAULTLIGHTINGTYPE
 70
     1
102
VTR_0.000_0.000_1.000_1.000_BRIGHTNESS
141
0.0
102
VTR_0.000_0.000_1.000_1.000_CONTRAST
142
0.0
  0
XRECORD
  5
1E7
102
{ACAD_REACTORS
330
1E6
102
}
330
1E6
100
AcDbXrecord
280
     1
102
VISUALSTYLE
340
2F
102
GRIDDISPLAY
 70
     2
102
GRIDMAJOR
 70
     5
102
DEFAULTLIGHTING
280
     1
102
DEFAULTLIGHTINGTYPE
 70
     1
102
BRIGHTNESS
141
0.0
102
CONTRAST
142
0.0
102
SUNID
360
0
  0
LAYOUT
  5
26
102
{ACAD_REACTORS
330
1A
102
}
330
1A
100
AcDbPlotSettings
  1

  2
none_device
  4
Letter_(8.50_x_11.00_Inches)
  6

 40
6.35
 41
6.35
 42
6.35001
 43
6.35001
 44
215.9
 45
279.4
 46
0.0
 47
0.0
 48
0.0
 49
0.0
140
0.0
141
0.0
142
1.0
143
1.0
 70
   688
 72
     0
 73
     1
 74
     5
  7

 75
    16
 76
     0
 77
     2
 78
   300
147
1.0
148
0.0
149
0.0
100
AcDbLayout
  1
Layout2
 70
     1
 71
     1
 10
-0.25
 20
-0.25
 11
10.75
 21
8.25
 12
0.0
 22
0.0
 32
0.0
 14
0.0
 24
0.0
 34
0.0
 15
0.0
 25
0.0
 35
0.0
146
0.0
 13
0.0
 23
0.0
 33
0.0
 16
1.0
 26
0.0
 36
0.0
 17
0.0
 27
1.0
 37
0.0
 76
     0
330
23
331
1E4
  0
LAYOUT
  5
22
102
{ACAD_REACTORS
330
1A
102
}
330
1A
100
AcDbPlotSettings
  1

  2
none_device
  4
Letter_(8.50_x_11.00_Inches)
  6

 40
6.35
 41
6.35
 42
6.35000508
 43
6.35000508
 44
215.9
 45
279.4
 46
0.0
 47
0.0
 48
0.0
 49
0.0
140
0.0
141
0.0
142
1.0
143
1.0
 70
  1712
 72
     0
 73
     0
 74
     0
  7

 75
     0
 76
     0
 77
     2
 78
   300
147
1.0
148
0.0
149
0.0
100
AcDbLayout
  1
Model
 70
     1
 71
     0
 10
0.0
 20
0.0
 11
12.0
 21
9.0
 12
0.0
 22
0.0
 32
0.0
 14
-9.250000000000014
 24
-5.499999999999915
 34
0.0
 15
9.25
 25
5.500000000000085
 35
0.0
146
0.0
 13
0.0
 23
0.0
 33
0.0
 16
1.0
 26
0.0
 36
0.0
 17
0.0
 27
1.0
 37
0.0
 76
     0
330
1F
331
29
  0
MATERIAL
  5
45
102
{ACAD_REACTORS
330
43
102
}
102
{ACAD_XDICTIONARY
360
220
102
}
330
43
100
AcDbMaterial
  1
ByBlock
  0
MATERIAL
  5
44
102
{ACAD_REACTORS
330
43
102
}
102
{ACAD_XDICTIONARY
360
21E
102
}
330
43
100
AcDbMaterial
  1
ByLayer
  0
MATERIAL
  5
46
102
{ACAD_REACTORS
330
43
102
}
102
{ACAD_XDICTIONARY
360
222
102
}
330
43
100
AcDbMaterial
  1
Global
  0
MLEADERSTYLE
  5
6C
102
{ACAD_REACTORS
330
6B
102
}
102
{ACAD_XDICTIONARY
360
228
102
}
330
6B
100
AcDbMLeaderStyle
170
     2
171
     1
172
     0
 90
        2
 40
0.0
 41
0.0
173
     1
 91
-1056964608
340
14
 92
       -2
290
     1
 42
0.09
291
     1
 43
0.36
  3
Standard
341
0
 44
0.18
300

342
11
174
     1
178
     6
175
     1
176
     0
 93
-1056964608
 45
0.18
292
     0
297
     0
 46
0.18
343
0
 94
-1056964608
 47
1.0
 49
1.0
140
1.0
293
     1
141
0.0
294
     1
177
     0
142
1.0
295
     0
296
     0
143
0.125
1001
ACAD_MLEADERVER
1070
     2
  0
MLINESTYLE
  5
18
102
{ACAD_REACTORS
330
17
102
}
330
17
100
AcDbMlineStyle
  2
Standard
 70
     0
  3

 62
   256
 51
90.0
 52
90.0
 71
     2
 49
0.5
 62
   256
  6
BYLAYER
 49
-0.5
 62
   256
  6
BYLAYER
  0
ACDBPLACEHOLDER
  5
F
102
{ACAD_REACTORS
330
E
102
}
330
E
  0
SCALE
  5
48
102
{ACAD_REACTORS
330
47
102
}
330
47
100
AcDbScale
 70
     0
300
1:1
140
1.0
141
1.0
290
     1
  0
SCALE
  5
49
102
{ACAD_REACTORS
330
47
102
}
330
47
100
AcDbScale
 70
     0
300
1:2
140
1.0
141
2.0
290
     0
  0
SCALE
  5
4A
102
{ACAD_REACTORS
330
47
102
}
330
47
100
AcDbScale
 70
     0
300
1:4
140
1.0
141
4.0
290
     0
  0
SCALE
  5
4B
102
{ACAD_REACTORS
330
47
102
}
330
47
100
AcDbScale
 70
     0
300
1:5
140
1.0
141
5.0
290
     0
  0
SCALE
  5
4C
102
{ACAD_REACTORS
330
47
102
}
330
47
100
AcDbScale
 70
     0
300
1:8
140
1.0
141
8.0
290
     0
  0
SCALE
  5
4D
102
{ACAD_REACTORS
330
47
102
}
330
47
100
AcDbScale
 70
     0
300
1:10
140
1.0
141
10.0
290
     0
  0
SCALE
  5
4E
102
{ACAD_REACTORS
330
47
102
}
330
47
100
AcDbScale
 70
     0
300
1:16
140
1.0
141
16.0
290
     0
  0
SCALE
  5
4F
102
{ACAD_REACTORS
330
47
102
}
330
47
100
AcDbScale
 70
     0
300
1:20
140
1.0
141
20.0
290
     0
  0
SCALE
  5
50
102
{ACAD_REACTORS
330
47
102
}
330
47
100
AcDbScale
 70
     0
300
1:30
140
1.0
141
30.0
290
     0
  0
SCALE
  5
51
102
{ACAD_REACTORS
330
47
102
}
330
47
100
AcDbScale
 70
     0
300
1:40
140
1.0
141
40.0
290
     0
  0
SCALE
  5
52
102
{ACAD_REACTORS
330
47
102
}
330
47
100
AcDbScale
 70
     0
300
1:50
140
1.0
141
50.0
290
     0
  0
SCALE
  5
53
102
{ACAD_REACTORS
330
47
102
}
330
47
100
AcDbScale
 70
     0
300
1:100
140
1.0
141
100.0
290
     0
  0
SCALE
  5
54
102
{ACAD_REACTORS
330
47
102
}
330
47
100
AcDbScale
 70
     0
300
2:1
140
2.0
141
1.0
290
     0
  0
SCALE
  5
55
102
{ACAD_REACTORS
330
47
102
}
330
47
100
AcDbScale
 70
     0
300
4:1
140
4.0
141
1.0
290
     0
  0
SCALE
  5
56
102
{ACAD_REACTORS
330
47
102
}
330
47
100
AcDbScale
 70
     0
300
8:1
140
8.0
141
1.0
290
     0
  0
SCALE
  5
57
102
{ACAD_REACTORS
330
47
102
}
330
47
100
AcDbScale
 70
     0
300
10:1
140
10.0
141
1.0
290
     0
  0
SCALE
  5
58
102
{ACAD_REACTORS
330
47
102
}
330
47
100
AcDbScale
 70
     0
300
100:1
140
100.0
141
1.0
290
     0
  0
SCALE
  5
59
102
{ACAD_REACTORS
330
47
102
}
330
47
100
AcDbScale
 70
     0
300
1/128" = 1'-0"
140
0.0078125
141
12.0
290
     0
  0
SCALE
  5
5A
102
{ACAD_REACTORS
330
47
102
}
330
47
100
AcDbScale
 70
     0
300
1/64" = 1'-0"
140
0.015625
141
12.0
290
     0
  0
SCALE
  5
5B
102
{ACAD_REACTORS
330
47
102
}
330
47
100
AcDbScale
 70
     0
300
1/32" = 1'-0"
140
0.03125
141
12.0
290
     0
  0
SCALE
  5
5C
102
{ACAD_REACTORS
330
47
102
}
330
47
100
AcDbScale
 70
     0
300
1/16" = 1'-0"
140
0.0625
141
12.0
290
     0
  0
SCALE
  5
5D
102
{ACAD_REACTORS
330
47
102
}
330
47
100
AcDbScale
 70
     0
300
3/32" = 1'-0"
140
0.09375
141
12.0
290
     0
  0
SCALE
  5
5E
102
{ACAD_REACTORS
330
47
102
}
330
47
100
AcDbScale
 70
     0
300
1/8" = 1'-0"
140
0.125
141
12.0
290
     0
  0
SCALE
  5
5F
102
{ACAD_REACTORS
330
47
102
}
330
47
100
AcDbScale
 70
     0
300
3/16" = 1'-0"
140
0.1875
141
12.0
290
     0
  0
SCALE
  5
60
102
{ACAD_REACTORS
330
47
102
}
330
47
100
AcDbScale
 70
     0
300
1/4" = 1'-0"
140
0.25
141
12.0
290
     0
  0
SCALE
  5
61
102
{ACAD_REACTORS
330
47
102
}
330
47
100
AcDbScale
 70
     0
300
3/8" = 1'-0"
140
0.375
141
12.0
290
     0
  0
SCALE
  5
62
102
{ACAD_REACTORS
330
47
102
}
330
47
100
AcDbScale
 70
     0
300
1/2" = 1'-0"
140
0.5
141
12.0
290
     0
  0
SCALE
  5
63
102
{ACAD_REACTORS
330
47
102
}
330
47
100
AcDbScale
 70
     0
300
3/4" = 1'-0"
140
0.75
141
12.0
290
     0
  0
SCALE
  5
64
102
{ACAD_REACTORS
330
47
102
}
330
47
100
AcDbScale
 70
     0
300
1" = 1'-0"
140
1.0
141
12.0
290
     0
  0
SCALE
  5
65
102
{ACAD_REACTORS
330
47
102
}
330
47
100
AcDbScale
 70
     0
300
1-1/2" = 1'-0"
140
1.5
141
12.0
290
     0
  0
SCALE
  5
66
102
{ACAD_REACTORS
330
47
102
}
330
47
100
AcDbScale
 70
     0
300
3" = 1'-0"
140
3.0
141
12.0
290
     0
  0
SCALE
  5
67
102
{ACAD_REACTORS
330
47
102
}
330
47
100
AcDbScale
 70
     0
300
6" = 1'-0"
140
6.0
141
12.0
290
     0
  0
SCALE
  5
68
102
{ACAD_REACTORS
330
47
102
}
330
47
100
AcDbScale
 70
     0
300
1'-0" = 1'-0"
140
12.0
141
12.0
290
     0
  0
TABLESTYLE
  5
6A
102
{ACAD_REACTORS
330
69
102
}
102
{ACAD_XDICTIONARY
360
224
102
}
330
69
100
AcDbTableStyle
  3
Standard
 70
     0
 71
     0
 40
0.06
 41
0.06
280
     0
281
     0
  7
Standard
140
0.18
170
     2
 62
     0
 63
   257
283
     0
274
    -2
284
     1
 64
     0
275
    -2
285
     1
 65
     0
276
    -2
286
     1
 66
     0
277
    -2
287
     1
 67
     0
278
    -2
288
     1
 68
     0
279
    -2
289
     1
 69
     0
  7
Standard
140
0.25
170
     5
 62
     0
 63
   257
283
     0
274
    -2
284
     1
 64
     0
275
    -2
285
     1
 65
     0
276
    -2
286
     1
 66
     0
277
    -2
287
     1
 67
     0
278
    -2
288
     1
 68
     0
279
    -2
289
     1
 69
     0
  7
Standard
140
0.18
170
     5
 62
     0
 63
   257
283
     0
274
    -2
284
     1
 64
     0
275
    -2
285
     1
 65
     0
276
    -2
286
     1
 66
     0
277
    -2
287
     1
 67
     0
278
    -2
288
     1
 68
     0
279
    -2
289
     1
 69
     0
  0
VISUALSTYLE
  5
2F
102
{ACAD_REACTORS
330
2A
102
}
102
{ACAD_XDICTIONARY
360
1F6
102
}
330
2A
100
AcDbVisualStyle
  2
2dWireframe
 70
     4
 71
     0
 72
     2
 73
     0
 90
        0
 40
0.6
 41
30.0
 62
     5
 63
     7
421
 16777215
 74
     1
 91
        4
 64
     7
 65
   257
 75
     1
175
     1
 42
1.0
 92
        0
 66
   257
 43
1.0
 76
     1
 77
     6
 78
     2
 67
     7
 79
     5
170
     0
171
     0
290
     0
174
     0
 93
        1
 44
0.0
173
     0
291
     0
 45
0.0
1001
ACAD
1000
AcDbSavedByObjectVersion
1070
     0
  0
VISUALSTYLE
  5
32
102
{ACAD_REACTORS
330
2A
102
}
102
{ACAD_XDICTIONARY
360
1FC
102
}
330
2A
100
AcDbVisualStyle
  2
Basic
 70
     7
 71
     1
 72
     0
 73
     1
 90
        0
 40
0.6
 41
30.0
 62
     5
 63
     7
421
 16777215
 74
     0
 91
        4
 64
     7
 65
   257
 75
     1
175
     1
 42
1.0
 92
        8
 66
     7
 43
1.0
 76
     1
 77
     6
 78
     2
 67
     7
 79
     5
170
     0
171
     0
290
     0
174
     0
 93
        1
 44
0.0
173
     0
291
     1
 45
0.0
1001
ACAD
1000
AcDbSavedByObjectVersion
1070
     0
  0
VISUALSTYLE
  5
36
102
{ACAD_REACTORS
330
2A
102
}
102
{ACAD_XDICTIONARY
360
204
102
}
330
2A
100
AcDbVisualStyle
  2
Brighten
 70
    12
 71
     2
 72
     2
 73
     0
 90
        0
 40
0.6
 41
30.0
 62
     5
 63
     7
421
 16777215
 74
     1
 91
        4
 64
     7
 65
   257
 75
     1
175
     1
 42
1.0
 92
        8
 66
     7
 43
1.0
 76
     1
 77
     6
 78
     2
 67
     7
 79
     5
170
     0
171
     0
290
     0
174
     0
 93
        1
 44
50.0
173
     0
291
     1
 45
0.0
1001
ACAD
1000
AcDbSavedByObjectVersion
1070
     0
  0
VISUALSTYLE
  5
3A
102
{ACAD_REACTORS
330
2A
102
}
102
{ACAD_XDICTIONARY
360
20C
102
}
330
2A
100
AcDbVisualStyle
  2
ColorChange
 70
    16
 71
     2
 72
     2
 73
     3
 90
        0
 40
0.6
 41
30.0
 62
     5
 63
     8
421
  8421504
 74
     1
 91
        4
 64
     7
 65
   257
 75
     1
175
     1
 42
1.0
 92
        8
 66
     8
424
  8421504
 43
1.0
 76
     1
 77
     6
 78
     2
 67
     7
 79
     5
170
     0
171
     0
290
     0
174
     0
 93
        1
 44
0.0
173
     0
291
     1
 45
0.0
1001
ACAD
1000
AcDbSavedByObjectVersion
1070
     0
  0
VISUALSTYLE
  5
34
102
{ACAD_REACTORS
330
2A
102
}
102
{ACAD_XDICTIONARY
360
200
102
}
330
2A
100
AcDbVisualStyle
  2
Conceptual
 70
     9
 71
     3
 72
     2
 73
     0
 90
        0
 40
0.6
 41
30.0
 62
     5
 63
     7
421
 16777215
 74
     2
 91
        2
 64
     7
 65
   257
 75
     1
175
     1
 42
179.0
 92
        8
 66
     7
 43
1.0
 76
     1
 77
     6
 78
     2
 67
     7
 79
     3
170
     0
171
     0
290
     0
174
     0
 93
        1
 44
0.0
173
     0
291
     0
 45
0.0
1001
ACAD
1000
AcDbSavedByObjectVersion
1070
     0
  0
VISUALSTYLE
  5
35
102
{ACAD_REACTORS
330
2A
102
}
102
{ACAD_XDICTIONARY
360
202
102
}
330
2A
100
AcDbVisualStyle
  2
Dim
 70
    11
 71
     2
 72
     2
 73
     0
 90
        0
 40
0.6
 41
30.0
 62
     5
 63
     7
421
 16777215
 74
     1
 91
        4
 64
     7
 65
   257
 75
     1
175
     1
 42
1.0
 92
        8
 66
     7
 43
1.0
 76
     1
 77
     6
 78
     2
 67
     7
 79
     5
170
     0
171
     0
290
     0
174
     0
 93
        1
 44
-50.0
173
     0
291
     1
 45
0.0
1001
ACAD
1000
AcDbSavedByObjectVersion
1070
     0
  0
VISUALSTYLE
  5
3D
102
{ACAD_REACTORS
330
2A
102
}
102
{ACAD_XDICTIONARY
360
212
102
}
330
2A
100
AcDbVisualStyle
  2
EdgeColorOff
 70
    22
 71
     2
 72
     2
 73
     0
 90
        0
 40
0.6
 41
30.0
 62
     5
 63
     7
421
 16777215
 74
     1
 91
        4
 64
     7
 65
   257
 75
     1
175
     1
 42
1.0
 92
        8
 66
     7
 43
1.0
 76
     1
 77
     6
 78
     2
 67
     7
 79
     5
170
     0
171
     0
290
     0
174
     0
 93
        1
 44
0.0
173
     0
291
     1
 45
0.0
1001
ACAD
1000
AcDbSavedByObjectVersion
1070
     0
  0
VISUALSTYLE
  5
39
102
{ACAD_REACTORS
330
2A
102
}
102
{ACAD_XDICTIONARY
360
20A
102
}
330
2A
100
AcDbVisualStyle
  2
Facepattern
 70
    15
 71
     2
 72
     2
 73
     0
 90
        0
 40
0.6
 41
30.0
 62
     5
 63
     7
421
 16777215
 74
     1
 91
        4
 64
     7
 65
   257
 75
     1
175
     1
 42
1.0
 92
        8
 66
     7
 43
1.0
 76
     1
 77
     6
 78
     2
 67
     7
 79
     5
170
     0
171
     0
290
     0
174
     0
 93
        1
 44
0.0
173
     0
291
     1
 45
0.0
1001
ACAD
1000
AcDbSavedByObjectVersion
1070
     0
  0
VISUALSTYLE
  5
2B
102
{ACAD_REACTORS
330
2A
102
}
102
{ACAD_XDICTIONARY
360
1EE
102
}
330
2A
100
AcDbVisualStyle
  2
Flat
 70
     0
 71
     2
 72
     1
 73
     1
 90
        2
 40
0.6
 41
30.0
 62
     5
 63
     7
421
 16777215
 74
     0
 91
        0
 64
     7
 65
   257
 75
     1
175
     1
 42
1.0
 92
        8
 66
     7
 43
1.0
 76
     1
 77
     6
 78
     2
 67
     7
 79
     5
170
     0
171
     0
290
     0
174
     0
 93
       13
 44
0.0
173
     0
291
     1
 45
0.0
1001
ACAD
1000
AcDbSavedByObjectVersion
1070
     0
  0
VISUALSTYLE
  5
2C
102
{ACAD_REACTORS
330
2A
102
}
102
{ACAD_XDICTIONARY
360
1F0
102
}
330
2A
100
AcDbVisualStyle
  2
FlatWithEdges
 70
     1
 71
     2
 72
     1
 73
     1
 90
        2
 40
0.6
 41
30.0
 62
     5
 63
     7
421
 16777215
 74
     1
 91
        0
 64
     7
 65
   257
 75
     1
175
     1
 42
1.0
 92
        0
 66
   257
 43
1.0
 76
     1
 77
     6
 78
     2
 67
     7
 79
     5
170
     0
171
     0
290
     0
174
     0
 93
       13
 44
0.0
173
     0
291
     1
 45
0.0
1001
ACAD
1000
AcDbSavedByObjectVersion
1070
     0
  0
VISUALSTYLE
  5
2D
102
{ACAD_REACTORS
330
2A
102
}
102
{ACAD_XDICTIONARY
360
1F2
102
}
330
2A
100
AcDbVisualStyle
  2
Gouraud
 70
     2
 71
     2
 72
     2
 73
     1
 90
        2
 40
0.6
 41
30.0
 62
     5
 63
     7
421
 16777215
 74
     0
 91
        0
 64
     7
 65
   257
 75
     1
175
     1
 42
1.0
 92
        0
 66
     7
 43
1.0
 76
     1
 77
     6
 78
     2
 67
     7
 79
     5
170
     0
171
     0
290
     0
174
     0
 93
       13
 44
0.0
173
     0
291
     1
 45
0.0
1001
ACAD
1000
AcDbSavedByObjectVersion
1070
     0
  0
VISUALSTYLE
  5
2E
102
{ACAD_REACTORS
330
2A
102
}
102
{ACAD_XDICTIONARY
360
1F4
102
}
330
2A
100
AcDbVisualStyle
  2
GouraudWithEdges
 70
     3
 71
     2
 72
     2
 73
     1
 90
        2
 40
0.6
 41
30.0
 62
     5
 63
     7
421
 16777215
 74
     1
 91
        0
 64
     7
 65
   257
 75
     1
175
     1
 42
1.0
 92
        0
 66
   257
 43
1.0
 76
     1
 77
     6
 78
     2
 67
     7
 79
     5
170
     0
171
     0
290
     0
174
     0
 93
       13
 44
0.0
173
     0
291
     1
 45
0.0
1001
ACAD
1000
AcDbSavedByObjectVersion
1070
     0
  0
VISUALSTYLE
  5
31
102
{ACAD_REACTORS
330
2A
102
}
102
{ACAD_XDICTIONARY
360
1FA
102
}
330
2A
100
AcDbVisualStyle
  2
Hidden
 70
     6
 71
     1
 72
     2
 73
     2
 90
        0
 40
0.6
 41
30.0
 62
     5
 63
     7
421
 16777215
 74
     2
 91
        2
 64
     7
 65
   257
 75
     2
175
     1
 42
40.0
 92
        0
 66
   257
 43
1.0
 76
     1
 77
     6
 78
     2
 67
     7
 79
     3
170
     0
171
     0
290
     0
174
     0
 93
        1
 44
0.0
173
     0
291
     0
 45
0.0
1001
ACAD
1000
AcDbSavedByObjectVersion
1070
     0
  0
VISUALSTYLE
  5
3B
102
{ACAD_REACTORS
330
2A
102
}
102
{ACAD_XDICTIONARY
360
20E
102
}
330
2A
100
AcDbVisualStyle
  2
JitterOff
 70
    20
 71
     2
 72
     2
 73
     0
 90
        0
 40
0.6
 41
30.0
 62
     5
 63
     7
421
 16777215
 74
     1
 91
        4
 64
     7
 65
   257
 75
     1
175
     1
 42
1.0
 92
       10
 66
     7
 43
1.0
 76
     1
 77
     6
 78
     2
 67
     7
 79
     5
170
     0
171
     0
290
     0
174
     0
 93
        1
 44
0.0
173
     0
291
     1
 45
0.0
1001
ACAD
1000
AcDbSavedByObjectVersion
1070
     0
  0
VISUALSTYLE
  5
38
102
{ACAD_REACTORS
330
2A
102
}
102
{ACAD_XDICTIONARY
360
208
102
}
330
2A
100
AcDbVisualStyle
  2
Linepattern
 70
    14
 71
     2
 72
     2
 73
     0
 90
        0
 40
0.6
 41
30.0
 62
     5
 63
     7
421
 16777215
 74
     1
 91
        4
 64
     7
 65
   257
 75
     7
175
     7
 42
1.0
 92
        8
 66
     7
 43
1.0
 76
     1
 77
     6
 78
     2
 67
     7
 79
     5
170
     0
171
     0
290
     0
174
     0
 93
        1
 44
0.0
173
     0
291
     1
 45
0.0
1001
ACAD
1000
AcDbSavedByObjectVersion
1070
     0
  0
VISUALSTYLE
  5
3C
102
{ACAD_REACTORS
330
2A
102
}
102
{ACAD_XDICTIONARY
360
210
102
}
330
2A
100
AcDbVisualStyle
  2
OverhangOff
 70
    21
 71
     2
 72
     2
 73
     0
 90
        0
 40
0.6
 41
30.0
 62
     5
 63
     7
421
 16777215
 74
     1
 91
        4
 64
     7
 65
   257
 75
     1
175
     1
 42
1.0
 92
        9
 66
     7
 43
1.0
 76
     1
 77
     6
 78
     2
 67
     7
 79
     5
170
     0
171
     0
290
     0
174
     0
 93
        1
 44
0.0
173
     0
291
     1
 45
0.0
1001
ACAD
1000
AcDbSavedByObjectVersion
1070
     0
  0
VISUALSTYLE
  5
33
102
{ACAD_REACTORS
330
2A
102
}
102
{ACAD_XDICTIONARY
360
1FE
102
}
330
2A
100
AcDbVisualStyle
  2
Realistic
 70
     8
 71
     2
 72
     3
 73
     0
 90
        2
 40
0.6
 41
30.0
 62
     5
 63
     7
421
 16777215
 74
     0
 91
        0
 64
     7
 65
   257
 75
     1
175
     1
 42
1.0
 92
        8
 66
   257
 43
1.0
 76
     1
 77
     6
 78
     2
 67
     7
 79
     3
170
     0
171
     0
290
     0
174
     0
 93
       13
 44
0.0
173
     0
291
     0
 45
0.0
1001
ACAD
1000
AcDbSavedByObjectVersion
1070
     0
  0
VISUALSTYLE
  5
42
102
{ACAD_REACTORS
330
2A
102
}
102
{ACAD_XDICTIONARY
360
21C
102
}
330
2A
100
AcDbVisualStyle
  2
Shaded
 70
    27
 71
     2
 72
     2
 73
     1
 90
        2
 40
0.6
 41
30.0
 62
     5
 63
     7
421
 16777215
 74
     0
 91
        4
 64
     7
 65
   257
 75
     1
175
     1
 42
1.0
 92
        8
 66
   257
 43
1.0
 76
     1
 77
     6
 78
     2
 67
     8
425
  7895160
 79
     3
170
     0
171
     0
290
     0
174
     0
 93
        5
 44
0.0
173
     0
291
     0
 45
0.0
1001
ACAD
1000
AcDbSavedByObjectVersion
1070
     0
  0
VISUALSTYLE
  5
41
102
{ACAD_REACTORS
330
2A
102
}
102
{ACAD_XDICTIONARY
360
21A
102
}
330
2A
100
AcDbVisualStyle
  2
Shaded with edges
 70
    26
 71
     2
 72
     2
 73
     1
 90
        2
 40
0.6
 41
30.0
 62
     5
 63
     7
421
 16777215
 74
     1
 91
       10
 64
     7
 65
   257
 75
     2
175
     1
 42
1.0
 92
        8
 66
   257
 43
1.0
 76
     1
 77
     6
 78
     2
 67
     7
 79
     3
170
     0
171
     0
290
     0
174
     0
 93
        5
 44
0.0
173
     0
291
     0
 45
0.0
1001
ACAD
1000
AcDbSavedByObjectVersion
1070
     0
  0
VISUALSTYLE
  5
3E
102
{ACAD_REACTORS
330
2A
102
}
102
{ACAD_XDICTIONARY
360
214
102
}
330
2A
100
AcDbVisualStyle
  2
Shades of Gray
 70
    23
 71
     2
 72
     2
 73
     3
 90
        0
 40
0.6
 41
30.0
 62
     5
 63
     7
421
 16777215
 74
     2
 91
        2
 64
     7
 65
     7
 75
     1
175
     1
 42
40.0
 92
        8
 66
     7
 43
1.0
 76
     1
 77
     6
 78
     2
 67
     7
 79
     3
170
     0
171
     0
290
     0
174
     0
 93
        1
 44
0.0
173
     0
291
     0
 45
0.0
1001
ACAD
1000
AcDbSavedByObjectVersion
1070
     0
  0
VISUALSTYLE
  5
3F
102
{ACAD_REACTORS
330
2A
102
}
102
{ACAD_XDICTIONARY
360
216
102
}
330
2A
100
AcDbVisualStyle
  2
Sketchy
 70
    24
 71
     1
 72
     2
 73
     2
 90
        0
 40
0.6
 41
30.0
 62
     5
 63
     7
421
 16777215
 74
     2
 91
        2
 64
     7
 65
     7
 75
     1
175
     1
 42
40.0
 92
       11
 66
     7
 43
1.0
 76
     1
 77
     6
 78
     2
 67
     7
 79
     6
170
     0
171
     0
290
     0
174
     0
 93
        1
 44
0.0
173
     0
291
     0
 45
0.0
1001
ACAD
1000
AcDbSavedByObjectVersion
1070
     0
  0
VISUALSTYLE
  5
37
102
{ACAD_REACTORS
330
2A
102
}
102
{ACAD_XDICTIONARY
360
206
102
}
330
2A
100
AcDbVisualStyle
  2
Thicken
 70
    13
 71
     2
 72
     2
 73
     0
 90
        0
 40
0.6
 41
30.0
 62
     5
 63
     7
421
 16777215
 74
     1
 91
        4
 64
     7
 65
   257
 75
     1
175
     1
 42
1.0
 92
       12
 66
     7
 43
1.0
 76
     1
 77
     6
 78
     2
 67
     7
 79
     5
170
     0
171
     0
290
     0
174
     0
 93
        1
 44
0.0
173
     0
291
     1
 45
0.0
1001
ACAD
1000
AcDbSavedByObjectVersion
1070
     0
  0
VISUALSTYLE
  5
30
102
{ACAD_REACTORS
330
2A
102
}
102
{ACAD_XDICTIONARY
360
1F8
102
}
330
2A
100
AcDbVisualStyle
  2
Wireframe
 70
     5
 71
     0
 72
     2
 73
     0
 90
        0
 40
0.6
 41
30.0
 62
     5
 63
     7
421
 16777215
 74
     1
 91
        4
 64
     7
 65
   257
 75
     1
175
     1
 42
1.0
 92
        0
 66
   257
 43
1.0
 76
     1
 77
     6
 78
     2
 67
     7
 79
     3
170
     0
171
     0
290
     0
174
     0
 93
        1
 44
0.0
173
     0
291
     0
 45
0.0
1001
ACAD
1000
AcDbSavedByObjectVersion
1070
     0
  0
VISUALSTYLE
  5
40
102
{ACAD_REACTORS
330
2A
102
}
102
{ACAD_XDICTIONARY
360
218
102
}
330
2A
100
AcDbVisualStyle
  2
X-Ray
 70
    25
 71
     2
 72
     2
 73
     1
 90
        1
 40
0.5
 41
30.0
 62
     5
 63
     7
421
 16777215
 74
     1
 91
        0
 64
     7
 65
   257
 75
     1
175
     1
 42
1.0
 92
        8
 66
     7
 43
1.0
 76
     1
 77
     6
 78
     2
 67
     7
 79
     3
170
     0
171
     0
290
     0
174
     0
 93
       13
 44
0.0
173
     0
291
     0
 45
0.0
1001
ACAD
1000
AcDbSavedByObjectVersion
1070
     0
  0
DICTIONARYVAR
  5
1EB
102
{ACAD_REACTORS
330
1EA
102
}
330
1EA
100
DictionaryVariables
280
     0
  1
1:1
  0
DICTIONARYVAR
  5
22C
102
{ACAD_REACTORS
330
1EA
102
}
330
1EA
100
DictionaryVariables
280
     0
  1
Standard
  0
DICTIONARYVAR
  5
22B
102
{ACAD_REACTORS
330
1EA
102
}
330
1EA
100
DictionaryVariables
280
     0
  1
Standard
  0
DICTIONARYVAR
  5
1EC
102
{ACAD_REACTORS
330
1EA
102
}
330
1EA
100
DictionaryVariables
280
     0
  1
1
  0
DICTIONARYVAR
  5
1ED
102
{ACAD_REACTORS
330
1EA
102
}
330
1EA
100
DictionaryVariables
280
     0
  1
2
  0
DICTIONARY
  5
220
330
45
100
AcDbDictionary
280
     1
281
     1
  3
ACAD_XREC_ROUNDTRIP
360
221
  0
DICTIONARY
  5
21E
330
44
100
AcDbDictionary
280
     1
281
     1
  3
ACAD_XREC_ROUNDTRIP
360
21F
  0
DICTIONARY
  5
222
330
46
100
AcDbDictionary
280
     1
281
     1
  3
ACAD_XREC_ROUNDTRIP
360
223
  0
DICTIONARY
  5
228
330
6C
100
AcDbDictionary
280
     1
281
     1
  3
ACAD_XREC_ROUNDTRIP
360
229
  0
DICTIONARY
  5
224
330
6A
100
AcDbDictionary
280
     1
281
     1
  3
ACAD_ROUNDTRIP_2008_TABLESTYLE_CELLSTYLEMAP
360
226
  3
ACAD_XREC_ROUNDTRIP
360
225
  0
DICTIONARY
  5
1F6
330
2F
100
AcDbDictionary
280
     1
281
     1
  3
ACAD_XREC_ROUNDTRIP
360
1F7
  0
DICTIONARY
  5
1FC
330
32
100
AcDbDictionary
280
     1
281
     1
  3
ACAD_XREC_ROUNDTRIP
360
1FD
  0
DICTIONARY
  5
204
330
36
100
AcDbDictionary
280
     1
281
     1
  3
ACAD_XREC_ROUNDTRIP
360
205
  0
DICTIONARY
  5
20C
330
3A
100
AcDbDictionary
280
     1
281
     1
  3
ACAD_XREC_ROUNDTRIP
360
20D
  0
DICTIONARY
  5
200
330
34
100
AcDbDictionary
280
     1
281
     1
  3
ACAD_XREC_ROUNDTRIP
360
201
  0
DICTIONARY
  5
202
330
35
100
AcDbDictionary
280
     1
281
     1
  3
ACAD_XREC_ROUNDTRIP
360
203
  0
DICTIONARY
  5
212
330
3D
100
AcDbDictionary
280
     1
281
     1
  3
ACAD_XREC_ROUNDTRIP
360
213
  0
DICTIONARY
  5
20A
330
39
100
AcDbDictionary
280
     1
281
     1
  3
ACAD_XREC_ROUNDTRIP
360
20B
  0
DICTIONARY
  5
1EE
330
2B
100
AcDbDictionary
280
     1
281
     1
  3
ACAD_XREC_ROUNDTRIP
360
1EF
  0
DICTIONARY
  5
1F0
330
2C
100
AcDbDictionary
280
     1
281
     1
  3
ACAD_XREC_ROUNDTRIP
360
1F1
  0
DICTIONARY
  5
1F2
330
2D
100
AcDbDictionary
280
     1
281
     1
  3
ACAD_XREC_ROUNDTRIP
360
1F3
  0
DICTIONARY
  5
1F4
330
2E
100
AcDbDictionary
280
     1
281
     1
  3
ACAD_XREC_ROUNDTRIP
360
1F5
  0
DICTIONARY
  5
1FA
330
31
100
AcDbDictionary
280
     1
281
     1
  3
ACAD_XREC_ROUNDTRIP
360
1FB
  0
DICTIONARY
  5
20E
330
3B
100
AcDbDictionary
280
     1
281
     1
  3
ACAD_XREC_ROUNDTRIP
360
20F
  0
DICTIONARY
  5
208
330
38
100
AcDbDictionary
280
     1
281
     1
  3
ACAD_XREC_ROUNDTRIP
360
209
  0
DICTIONARY
  5
210
330
3C
100
AcDbDictionary
280
     1
281
     1
  3
ACAD_XREC_ROUNDTRIP
360
211
  0
DICTIONARY
  5
1FE
330
33
100
AcDbDictionary
280
     1
281
     1
  3
ACAD_XREC_ROUNDTRIP
360
1FF
  0
DICTIONARY
  5
21C
330
42
100
AcDbDictionary
280
     1
281
     1
  3
ACAD_XREC_ROUNDTRIP
360
21D
  0
DICTIONARY
  5
21A
330
41
100
AcDbDictionary
280
     1
281
     1
  3
ACAD_XREC_ROUNDTRIP
360
21B
  0
DICTIONARY
  5
214
330
3E
100
AcDbDictionary
280
     1
281
     1
  3
ACAD_XREC_ROUNDTRIP
360
215
  0
DICTIONARY
  5
216
330
3F
100
AcDbDictionary
280
     1
281
     1
  3
ACAD_XREC_ROUNDTRIP
360
217
  0
DICTIONARY
  5
206
330
37
100
AcDbDictionary
280
     1
281
     1
  3
ACAD_XREC_ROUNDTRIP
360
207
  0
DICTIONARY
  5
1F8
330
30
100
AcDbDictionary
280
     1
281
     1
  3
ACAD_XREC_ROUNDTRIP
360
1F9
  0
DICTIONARY
  5
218
330
40
100
AcDbDictionary
280
     1
281
     1
  3
ACAD_XREC_ROUNDTRIP
360
219
  0
XRECORD
  5
221
102
{ACAD_REACTORS
330
220
102
}
330
220
100
AcDbXrecord
280
     1
102
MATERIAL
148
0.0
149
0.0
149
0.0
 93
        0
 94
      127
282
     0
 72
     1
 77
     1
171
     1
175
     1
179
     1
273
     0
  0
XRECORD
  5
21F
102
{ACAD_REACTORS
330
21E
102
}
330
21E
100
AcDbXrecord
280
     1
102
MATERIAL
148
0.0
149
0.0
149
0.0
 93
        0
 94
      127
282
     0
 72
     1
 77
     1
171
     1
175
     1
179
     1
273
     0
  0
XRECORD
  5
223
102
{ACAD_REACTORS
330
222
102
}
330
222
100
AcDbXrecord
280
     1
102
MATERIAL
148
0.0
149
0.0
149
0.0
 93
        0
 94
      127
282
     0
 72
     1
 77
     1
171
     1
175
     1
179
     1
273
     0
  0
XRECORD
  5
229
102
{ACAD_REACTORS
330
228
102
}
330
228
100
AcDbXrecord
280
     1
102
ACAD_ROUNDTRIP_2010_MLEADER_STYLE
  0
CELLSTYLEMAP
  5
226
102
{ACAD_REACTORS
330
224
102
}
330
224
100
AcDbCellStyleMap
 90
        3
300
CELLSTYLE
  1
TABLEFORMAT_BEGIN
 90
        5
170
     1
 91
        0
 92
    32768
 62
   257
 93
        1
300
CONTENTFORMAT
  1
CONTENTFORMAT_BEGIN
 90
        0
 91
        0
 92
        4
 93
        0
300

 40
0.0
140
1.0
 94
        5
 62
     0
340
11
144
0.25
309
CONTENTFORMAT_END
171
     1
301
MARGIN
  1
CELLMARGIN_BEGIN
 40
0.06
 40
0.06
 40
0.06
 40
0.06
 40
0.06
 40
0.06
309
CELLMARGIN_END
 94
        6
 95
        1
302
GRIDFORMAT
  1
GRIDFORMAT_BEGIN
 90
        0
 91
        1
 62
     0
 92
       -2
340
14
 93
        0
 40
0.045
309
GRIDFORMAT_END
 95
        2
302
GRIDFORMAT
  1
GRIDFORMAT_BEGIN
 90
        0
 91
        1
 62
     0
 92
       -2
340
14
 93
        0
 40
0.045
309
GRIDFORMAT_END
 95
        4
302
GRIDFORMAT
  1
GRIDFORMAT_BEGIN
 90
        0
 91
        1
 62
     0
 92
       -2
340
14
 93
        0
 40
0.045
309
GRIDFORMAT_END
 95
        8
302
GRIDFORMAT
  1
GRIDFORMAT_BEGIN
 90
        0
 91
        1
 62
     0
 92
       -2
340
14
 93
        0
 40
0.045
309
GRIDFORMAT_END
 95
       16
302
GRIDFORMAT
  1
GRIDFORMAT_BEGIN
 90
        0
 91
        1
 62
     0
 92
       -2
340
14
 93
        0
 40
0.045
309
GRIDFORMAT_END
 95
       32
302
GRIDFORMAT
  1
GRIDFORMAT_BEGIN
 90
        0
 91
        1
 62
     0
 92
       -2
340
14
 93
        0
 40
0.045
309
GRIDFORMAT_END
309
TABLEFORMAT_END
  1
CELLSTYLE_BEGIN
 90
        1
 91
        1
300
_TITLE
309
CELLSTYLE_END
300
CELLSTYLE
  1
TABLEFORMAT_BEGIN
 90
        5
170
     1
 91
        0
 92
        0
 62
   257
 93
        1
300
CONTENTFORMAT
  1
CONTENTFORMAT_BEGIN
 90
        0
 91
        0
 92
        4
 93
        0
300

 40
0.0
140
1.0
 94
        5
 62
     0
340
11
144
0.18
309
CONTENTFORMAT_END
171
     1
301
MARGIN
  1
CELLMARGIN_BEGIN
 40
0.06
 40
0.06
 40
0.06
 40
0.06
 40
0.06
 40
0.06
309
CELLMARGIN_END
 94
        6
 95
        1
302
GRIDFORMAT
  1
GRIDFORMAT_BEGIN
 90
        0
 91
        1
 62
     0
 92
       -2
340
14
 93
        0
 40
0.045
309
GRIDFORMAT_END
 95
        2
302
GRIDFORMAT
  1
GRIDFORMAT_BEGIN
 90
        0
 91
        1
 62
     0
 92
       -2
340
14
 93
        0
 40
0.045
309
GRIDFORMAT_END
 95
        4
302
GRIDFORMAT
  1
GRIDFORMAT_BEGIN
 90
        0
 91
        1
 62
     0
 92
       -2
340
14
 93
        0
 40
0.045
309
GRIDFORMAT_END
 95
        8
302
GRIDFORMAT
  1
GRIDFORMAT_BEGIN
 90
        0
 91
        1
 62
     0
 92
       -2
340
14
 93
        0
 40
0.045
309
GRIDFORMAT_END
 95
       16
302
GRIDFORMAT
  1
GRIDFORMAT_BEGIN
 90
        0
 91
        1
 62
     0
 92
       -2
340
14
 93
        0
 40
0.045
309
GRIDFORMAT_END
 95
       32
302
GRIDFORMAT
  1
GRIDFORMAT_BEGIN
 90
        0
 91
        1
 62
     0
 92
       -2
340
14
 93
        0
 40
0.045
309
GRIDFORMAT_END
309
TABLEFORMAT_END
  1
CELLSTYLE_BEGIN
 90
        2
 91
        1
300
_HEADER
309
CELLSTYLE_END
300
CELLSTYLE
  1
TABLEFORMAT_BEGIN
 90
        5
170
     1
 91
        0
 92
        0
 62
   257
 93
        1
300
CONTENTFORMAT
  1
CONTENTFORMAT_BEGIN
 90
        0
 91
        0
 92
        4
 93
        0
300

 40
0.0
140
1.0
 94
        2
 62
     0
340
11
144
0.18
309
CONTENTFORMAT_END
171
     1
301
MARGIN
  1
CELLMARGIN_BEGIN
 40
0.06
 40
0.06
 40
0.06
 40
0.06
 40
0.06
 40
0.06
309
CELLMARGIN_END
 94
        6
 95
        1
302
GRIDFORMAT
  1
GRIDFORMAT_BEGIN
 90
        0
 91
        1
 62
     0
 92
       -2
340
14
 93
        0
 40
0.045
309
GRIDFORMAT_END
 95
        2
302
GRIDFORMAT
  1
GRIDFORMAT_BEGIN
 90
        0
 91
        1
 62
     0
 92
       -2
340
14
 93
        0
 40
0.045
309
GRIDFORMAT_END
 95
        4
302
GRIDFORMAT
  1
GRIDFORMAT_BEGIN
 90
        0
 91
        1
 62
     0
 92
       -2
340
14
 93
        0
 40
0.045
309
GRIDFORMAT_END
 95
        8
302
GRIDFORMAT
  1
GRIDFORMAT_BEGIN
 90
        0
 91
        1
 62
     0
 92
       -2
340
14
 93
        0
 40
0.045
309
GRIDFORMAT_END
 95
       16
302
GRIDFORMAT
  1
GRIDFORMAT_BEGIN
 90
        0
 91
        1
 62
     0
 92
       -2
340
14
 93
        0
 40
0.045
309
GRIDFORMAT_END
 95
       32
302
GRIDFORMAT
  1
GRIDFORMAT_BEGIN
 90
        0
 91
        1
 62
     0
 92
       -2
340
14
 93
        0
 40
0.045
309
GRIDFORMAT_END
309
TABLEFORMAT_END
  1
CELLSTYLE_BEGIN
 90
        3
 91
        2
300
_DATA
309
CELLSTYLE_END
  0
XRECORD
  5
225
102
{ACAD_REACTORS
330
224
102
}
330
224
100
AcDbXrecord
280
     1
102
ACAD_ROUNDTRIP_PRE2007_TABLESTYLE
 90
        4
 91
        0
  1

 92
        4
 93
        0
  2

 94
        4
 95
        0
  3

  0
XRECORD
  5
1F7
102
{ACAD_REACTORS
330
1F6
102
}
330
1F6
100
AcDbXrecord
280
     1
102
RTVSPropertyOp0
 70
     1
102
RTVSPropertyOp1
 70
     1
102
RTVSPropertyOp2
 70
     1
102
RTVSPropertyOp3
 70
     1
102
RTVSPropertyOp4
 70
     1
102
RTVSPropertyOp5
 70
     1
102
RTVSPropertyOp6
 70
     1
102
RTVSPropertyOp7
 70
     1
102
RTVSPropertyOp8
 70
     1
102
RTVSPropertyOp9
 70
     1
102
RTVSPropertyOp10
 70
     1
102
RTVSPropertyOp11
 70
     1
102
RTVSPropertyOp12
 70
     1
102
RTVSPropertyOp13
 70
     1
102
RTVSPropertyOp14
 70
     1
102
RTVSPropertyOp15
 70
     1
102
RTVSPropertyOp16
 70
     1
102
RTVSPropertyOp17
 70
     1
102
RTVSPropertyOp18
 70
     1
102
RTVSPropertyOp19
 70
     1
102
RTVSPropertyOp20
 70
     1
102
RTVSPropertyOp21
 70
     1
102
RTVSPropertyOp22
 70
     1
102
RTVSPropertyOp23
 70
     1
102
RTVSPropertyOp24
 70
     1
102
RTVSPropertyOp25
 70
     1
102
RTVSPropertyOp26
 70
     1
102
RTVSPropertyOp27
 70
     1
102
RTVSPropertyOp28
 70
     1
102
RTVSPropertyOp29
 70
     1
102
RTVSPropertyOp30
 70
     1
102
RTVSPropertyOp31
 70
     1
102
RTVSPropertyOp32
 70
     1
102
RTVSPropertyOp33
 70
     1
102
RTVSPropertyOp34
 70
     1
102
RTVSPropertyOp35
 70
     1
102
RTVSPropertyOp36
 70
     1
102
RTVSPropertyOp37
 70
     1
102
RTVSPropertyOp38
 70
     1
102
RTVSPropertyOp39
 70
     1
102
RTVSPropertyOp40
 70
     1
102
RTVSPropertyOp41
 70
     1
102
RTVSPropertyOp42
 70
     1
102
RTVSPropertyOp43
 70
     1
102
RTVSPropertyOp44
 70
     1
102
RTVSPropertyOp45
 70
     1
102
RTVSPropertyOp46
 70
     1
102
RTVSPropertyOp47
 70
     1
102
RTVSPropertyOp48
 70
     1
102
RTVSPropertyOp49
 70
     1
102
RTVSPropertyOp50
 70
     1
102
RTVSPropertyOp51
 70
     0
102
RTVSPropertyOp52
 70
     0
102
RTVSPropertyOp53
 70
     1
102
RTVSPropertyOp54
 70
     1
102
RTVSPropertyOp55
 70
     1
102
RTVSPropertyOp56
 70
     1
102
RTVSPropertyOp57
 70
     1
102
RTVSPost2010Prop28
280
     1
102
RTVSPost2010PropOp28
 70
     1
102
RTVSPost2010Prop29
280
     1
102
RTVSPost2010PropOp29
 70
     1
102
RTVSPost2010Prop30
280
     0
102
RTVSPost2010PropOp30
 70
     1
102
RTVSPost2010Prop31
280
     0
102
RTVSPost2010PropOp31
 70
     1
102
RTVSPost2010Prop32
280
     0
102
RTVSPost2010PropOp32
 70
     1
102
RTVSPost2010Prop33
280
     0
102
RTVSPost2010PropOp33
 70
     1
102
RTVSPost2010Prop34
280
     0
102
RTVSPost2010PropOp34
 70
     1
102
RTVSPost2010Prop35
280
     0
102
RTVSPost2010PropOp35
 70
     1
102
RTVSPost2010Prop36
280
     0
102
RTVSPost2010PropOp36
 70
     1
102
RTVSPost2010Prop37
 90
       50
102
RTVSPost2010PropOp37
 70
     1
102
RTVSPost2010Prop38
140
0.0
102
RTVSPost2010PropOp38
 70
     1
102
RTVSPost2010Prop39
140
1.0
102
RTVSPost2010PropOp39
 70
     1
102
RTVSPost2010Prop40
 90
        0
102
RTVSPost2010PropOp40
 70
     1
102
RTVSPost2010Prop41ColorIndex
 90
       18
102
RTVSPost2010Prop41ColorRGB
 90
        0
102
RTVSPost2010PropOp41
 70
     1
102
RTVSPost2010Prop42
 90
       50
102
RTVSPost2010PropOp42
 70
     1
102
RTVSPost2010Prop43
 90
        3
102
RTVSPost2010PropOp43
 70
     1
102
RTVSPost2010Prop44ColorIndex
 90
        5
102
RTVSPost2010Prop44ColorRGB
 90
      255
102
RTVSPost2010PropOp44
 70
     1
102
RTVSPost2010Prop45
280
     0
102
RTVSPost2010PropOp45
 70
     1
102
RTVSPost2010Prop46
 90
       50
102
RTVSPost2010PropOp46
 70
     1
102
RTVSPost2010Prop47
 90
       50
102
RTVSPost2010PropOp47
 70
     1
102
RTVSPost2010Prop48
 90
       50
102
RTVSPost2010PropOp48
 70
     1
102
RTVSPost2010Prop49
280
     0
102
RTVSPost2010PropOp49
 70
     1
102
RTVSPost2010Prop50
 90
       50
102
RTVSPost2010PropOp50
 70
     1
102
RTVSPost2010Prop51ColorIndex
 90
      256
102
RTVSPost2010Prop51ColorRGB
 90
-16777216
102
RTVSPost2010PropOp51
 70
     0
102
RTVSPost2010Prop52
140
1.0
102
RTVSPost2010PropOp52
 70
     0
102
RTVSPost2010Prop53
 90
        2
102
RTVSPost2010PropOp53
 70
     1
102
RTVSPost2010Prop54
  1
strokes_ogs.tif
102
RTVSPost2010PropOp54
 70
     1
102
RTVSPost2010Prop55
280
     0
102
RTVSPost2010PropOp55
 70
     1
102
RTVSPost2010Prop56
140
1.0
102
RTVSPost2010PropOp56
 70
     1
102
RTVSPost2010Prop57
140
1.0
102
RTVSPost2010PropOp57
 70
     1
  0
XRECORD
  5
1FD
102
{ACAD_REACTORS
330
1FC
102
}
330
1FC
100
AcDbXrecord
280
     1
102
RTVSPropertyOp0
 70
     1
102
RTVSPropertyOp1
 70
     1
102
RTVSPropertyOp2
 70
     1
102
RTVSPropertyOp3
 70
     1
102
RTVSPropertyOp4
 70
     1
102
RTVSPropertyOp5
 70
     1
102
RTVSPropertyOp6
 70
     1
102
RTVSPropertyOp7
 70
     1
102
RTVSPropertyOp8
 70
     1
102
RTVSPropertyOp9
 70
     1
102
RTVSPropertyOp10
 70
     1
102
RTVSPropertyOp11
 70
     1
102
RTVSPropertyOp12
 70
     1
102
RTVSPropertyOp13
 70
     1
102
RTVSPropertyOp14
 70
     1
102
RTVSPropertyOp15
 70
     1
102
RTVSPropertyOp16
 70
     1
102
RTVSPropertyOp17
 70
     1
102
RTVSPropertyOp18
 70
     1
102
RTVSPropertyOp19
 70
     1
102
RTVSPropertyOp20
 70
     1
102
RTVSPropertyOp21
 70
     1
102
RTVSPropertyOp22
 70
     1
102
RTVSPropertyOp23
 70
     1
102
RTVSPropertyOp24
 70
     1
102
RTVSPropertyOp25
 70
     1
102
RTVSPropertyOp26
 70
     1
102
RTVSPropertyOp27
 70
     1
102
RTVSPropertyOp28
 70
     1
102
RTVSPropertyOp29
 70
     1
102
RTVSPropertyOp30
 70
     1
102
RTVSPropertyOp31
 70
     1
102
RTVSPropertyOp32
 70
     1
102
RTVSPropertyOp33
 70
     1
102
RTVSPropertyOp34
 70
     1
102
RTVSPropertyOp35
 70
     1
102
RTVSPropertyOp36
 70
     1
102
RTVSPropertyOp37
 70
     1
102
RTVSPropertyOp38
 70
     1
102
RTVSPropertyOp39
 70
     1
102
RTVSPropertyOp40
 70
     1
102
RTVSPropertyOp41
 70
     1
102
RTVSPropertyOp42
 70
     1
102
RTVSPropertyOp43
 70
     1
102
RTVSPropertyOp44
 70
     1
102
RTVSPropertyOp45
 70
     1
102
RTVSPropertyOp46
 70
     1
102
RTVSPropertyOp47
 70
     1
102
RTVSPropertyOp48
 70
     1
102
RTVSPropertyOp49
 70
     1
102
RTVSPropertyOp50
 70
     1
102
RTVSPropertyOp51
 70
     0
102
RTVSPropertyOp52
 70
     0
102
RTVSPropertyOp53
 70
     1
102
RTVSPropertyOp54
 70
     1
102
RTVSPropertyOp55
 70
     1
102
RTVSPropertyOp56
 70
     1
102
RTVSPropertyOp57
 70
     1
102
RTVSPost2010Prop28
280
     0
102
RTVSPost2010PropOp28
 70
     1
102
RTVSPost2010Prop29
280
     1
102
RTVSPost2010PropOp29
 70
     1
102
RTVSPost2010Prop30
280
     1
102
RTVSPost2010PropOp30
 70
     1
102
RTVSPost2010Prop31
280
     0
102
RTVSPost2010PropOp31
 70
     1
102
RTVSPost2010Prop32
280
     0
102
RTVSPost2010PropOp32
 70
     1
102
RTVSPost2010Prop33
280
     0
102
RTVSPost2010PropOp33
 70
     1
102
RTVSPost2010Prop34
280
     0
102
RTVSPost2010PropOp34
 70
     1
102
RTVSPost2010Prop35
280
     0
102
RTVSPost2010PropOp35
 70
     1
102
RTVSPost2010Prop36
280
     0
102
RTVSPost2010PropOp36
 70
     1
102
RTVSPost2010Prop37
 90
       50
102
RTVSPost2010PropOp37
 70
     1
102
RTVSPost2010Prop38
140
0.0
102
RTVSPost2010PropOp38
 70
     1
102
RTVSPost2010Prop39
140
1.0
102
RTVSPost2010PropOp39
 70
     1
102
RTVSPost2010Prop40
 90
        0
102
RTVSPost2010PropOp40
 70
     1
102
RTVSPost2010Prop41ColorIndex
 90
       18
102
RTVSPost2010Prop41ColorRGB
 90
        0
102
RTVSPost2010PropOp41
 70
     1
102
RTVSPost2010Prop42
 90
       50
102
RTVSPost2010PropOp42
 70
     1
102
RTVSPost2010Prop43
 90
        3
102
RTVSPost2010PropOp43
 70
     1
102
RTVSPost2010Prop44ColorIndex
 90
        5
102
RTVSPost2010Prop44ColorRGB
 90
      255
102
RTVSPost2010PropOp44
 70
     1
102
RTVSPost2010Prop45
280
     0
102
RTVSPost2010PropOp45
 70
     1
102
RTVSPost2010Prop46
 90
       50
102
RTVSPost2010PropOp46
 70
     1
102
RTVSPost2010Prop47
 90
       50
102
RTVSPost2010PropOp47
 70
     1
102
RTVSPost2010Prop48
 90
       50
102
RTVSPost2010PropOp48
 70
     1
102
RTVSPost2010Prop49
280
     0
102
RTVSPost2010PropOp49
 70
     1
102
RTVSPost2010Prop50
 90
       50
102
RTVSPost2010PropOp50
 70
     1
102
RTVSPost2010Prop51ColorIndex
 90
      256
102
RTVSPost2010Prop51ColorRGB
 90
-16777216
102
RTVSPost2010PropOp51
 70
     0
102
RTVSPost2010Prop52
140
1.0
102
RTVSPost2010PropOp52
 70
     0
102
RTVSPost2010Prop53
 90
        2
102
RTVSPost2010PropOp53
 70
     1
102
RTVSPost2010Prop54
  1
strokes_ogs.tif
102
RTVSPost2010PropOp54
 70
     1
102
RTVSPost2010Prop55
280
     0
102
RTVSPost2010PropOp55
 70
     1
102
RTVSPost2010Prop56
140
1.0
102
RTVSPost2010PropOp56
 70
     1
102
RTVSPost2010Prop57
140
1.0
102
RTVSPost2010PropOp57
 70
     1
  0
XRECORD
  5
205
102
{ACAD_REACTORS
330
204
102
}
330
204
100
AcDbXrecord
280
     1
102
RTVSPropertyOp0
 70
     1
102
RTVSPropertyOp1
 70
     1
102
RTVSPropertyOp2
 70
     1
102
RTVSPropertyOp3
 70
     1
102
RTVSPropertyOp4
 70
     1
102
RTVSPropertyOp5
 70
     1
102
RTVSPropertyOp6
 70
     1
102
RTVSPropertyOp7
 70
     1
102
RTVSPropertyOp8
 70
     1
102
RTVSPropertyOp9
 70
     1
102
RTVSPropertyOp10
 70
     1
102
RTVSPropertyOp11
 70
     1
102
RTVSPropertyOp12
 70
     1
102
RTVSPropertyOp13
 70
     1
102
RTVSPropertyOp14
 70
     1
102
RTVSPropertyOp15
 70
     1
102
RTVSPropertyOp16
 70
     1
102
RTVSPropertyOp17
 70
     1
102
RTVSPropertyOp18
 70
     1
102
RTVSPropertyOp19
 70
     1
102
RTVSPropertyOp20
 70
     1
102
RTVSPropertyOp21
 70
     1
102
RTVSPropertyOp22
 70
     1
102
RTVSPropertyOp23
 70
     1
102
RTVSPropertyOp24
 70
     1
102
RTVSPropertyOp25
 70
     1
102
RTVSPropertyOp26
 70
     1
102
RTVSPropertyOp27
 70
     1
102
RTVSPropertyOp28
 70
     1
102
RTVSPropertyOp29
 70
     1
102
RTVSPropertyOp30
 70
     1
102
RTVSPropertyOp31
 70
     1
102
RTVSPropertyOp32
 70
     1
102
RTVSPropertyOp33
 70
     1
102
RTVSPropertyOp34
 70
     1
102
RTVSPropertyOp35
 70
     1
102
RTVSPropertyOp36
 70
     1
102
RTVSPropertyOp37
 70
     1
102
RTVSPropertyOp38
 70
     1
102
RTVSPropertyOp39
 70
     1
102
RTVSPropertyOp40
 70
     1
102
RTVSPropertyOp41
 70
     1
102
RTVSPropertyOp42
 70
     1
102
RTVSPropertyOp43
 70
     1
102
RTVSPropertyOp44
 70
     1
102
RTVSPropertyOp45
 70
     1
102
RTVSPropertyOp46
 70
     1
102
RTVSPropertyOp47
 70
     1
102
RTVSPropertyOp48
 70
     1
102
RTVSPropertyOp49
 70
     1
102
RTVSPropertyOp50
 70
     1
102
RTVSPropertyOp51
 70
     0
102
RTVSPropertyOp52
 70
     0
102
RTVSPropertyOp53
 70
     1
102
RTVSPropertyOp54
 70
     1
102
RTVSPropertyOp55
 70
     1
102
RTVSPropertyOp56
 70
     1
102
RTVSPropertyOp57
 70
     1
102
RTVSPost2010Prop28
280
     0
102
RTVSPost2010PropOp28
 70
     1
102
RTVSPost2010Prop29
280
     1
102
RTVSPost2010PropOp29
 70
     1
102
RTVSPost2010Prop30
280
     1
102
RTVSPost2010PropOp30
 70
     1
102
RTVSPost2010Prop31
280
     0
102
RTVSPost2010PropOp31
 70
     1
102
RTVSPost2010Prop32
280
     0
102
RTVSPost2010PropOp32
 70
     1
102
RTVSPost2010Prop33
280
     0
102
RTVSPost2010PropOp33
 70
     1
102
RTVSPost2010Prop34
280
     0
102
RTVSPost2010PropOp34
 70
     1
102
RTVSPost2010Prop35
280
     0
102
RTVSPost2010PropOp35
 70
     1
102
RTVSPost2010Prop36
280
     0
102
RTVSPost2010PropOp36
 70
     1
102
RTVSPost2010Prop37
 90
       50
102
RTVSPost2010PropOp37
 70
     1
102
RTVSPost2010Prop38
140
0.0
102
RTVSPost2010PropOp38
 70
     1
102
RTVSPost2010Prop39
140
1.0
102
RTVSPost2010PropOp39
 70
     1
102
RTVSPost2010Prop40
 90
        0
102
RTVSPost2010PropOp40
 70
     1
102
RTVSPost2010Prop41ColorIndex
 90
       18
102
RTVSPost2010Prop41ColorRGB
 90
        0
102
RTVSPost2010PropOp41
 70
     1
102
RTVSPost2010Prop42
 90
       50
102
RTVSPost2010PropOp42
 70
     1
102
RTVSPost2010Prop43
 90
        3
102
RTVSPost2010PropOp43
 70
     1
102
RTVSPost2010Prop44ColorIndex
 90
        5
102
RTVSPost2010Prop44ColorRGB
 90
      255
102
RTVSPost2010PropOp44
 70
     1
102
RTVSPost2010Prop45
280
     0
102
RTVSPost2010PropOp45
 70
     1
102
RTVSPost2010Prop46
 90
       50
102
RTVSPost2010PropOp46
 70
     1
102
RTVSPost2010Prop47
 90
       50
102
RTVSPost2010PropOp47
 70
     1
102
RTVSPost2010Prop48
 90
       50
102
RTVSPost2010PropOp48
 70
     1
102
RTVSPost2010Prop49
280
     0
102
RTVSPost2010PropOp49
 70
     1
102
RTVSPost2010Prop50
 90
       50
102
RTVSPost2010PropOp50
 70
     1
102
RTVSPost2010Prop51ColorIndex
 90
      256
102
RTVSPost2010Prop51ColorRGB
 90
-16777216
102
RTVSPost2010PropOp51
 70
     0
102
RTVSPost2010Prop52
140
1.0
102
RTVSPost2010PropOp52
 70
     0
102
RTVSPost2010Prop53
 90
        2
102
RTVSPost2010PropOp53
 70
     1
102
RTVSPost2010Prop54
  1
strokes_ogs.tif
102
RTVSPost2010PropOp54
 70
     1
102
RTVSPost2010Prop55
280
     0
102
RTVSPost2010PropOp55
 70
     1
102
RTVSPost2010Prop56
140
1.0
102
RTVSPost2010PropOp56
 70
     1
102
RTVSPost2010Prop57
140
1.0
102
RTVSPost2010PropOp57
 70
     1
  0
XRECORD
  5
20D
102
{ACAD_REACTORS
330
20C
102
}
330
20C
100
AcDbXrecord
280
     1
102
RTVSPropertyOp0
 70
     1
102
RTVSPropertyOp1
 70
     1
102
RTVSPropertyOp2
 70
     1
102
RTVSPropertyOp3
 70
     1
102
RTVSPropertyOp4
 70
     1
102
RTVSPropertyOp5
 70
     1
102
RTVSPropertyOp6
 70
     1
102
RTVSPropertyOp7
 70
     1
102
RTVSPropertyOp8
 70
     1
102
RTVSPropertyOp9
 70
     1
102
RTVSPropertyOp10
 70
     1
102
RTVSPropertyOp11
 70
     1
102
RTVSPropertyOp12
 70
     1
102
RTVSPropertyOp13
 70
     1
102
RTVSPropertyOp14
 70
     1
102
RTVSPropertyOp15
 70
     1
102
RTVSPropertyOp16
 70
     1
102
RTVSPropertyOp17
 70
     1
102
RTVSPropertyOp18
 70
     1
102
RTVSPropertyOp19
 70
     1
102
RTVSPropertyOp20
 70
     1
102
RTVSPropertyOp21
 70
     1
102
RTVSPropertyOp22
 70
     1
102
RTVSPropertyOp23
 70
     1
102
RTVSPropertyOp24
 70
     1
102
RTVSPropertyOp25
 70
     1
102
RTVSPropertyOp26
 70
     1
102
RTVSPropertyOp27
 70
     1
102
RTVSPropertyOp28
 70
     1
102
RTVSPropertyOp29
 70
     1
102
RTVSPropertyOp30
 70
     1
102
RTVSPropertyOp31
 70
     1
102
RTVSPropertyOp32
 70
     1
102
RTVSPropertyOp33
 70
     1
102
RTVSPropertyOp34
 70
     1
102
RTVSPropertyOp35
 70
     1
102
RTVSPropertyOp36
 70
     1
102
RTVSPropertyOp37
 70
     1
102
RTVSPropertyOp38
 70
     1
102
RTVSPropertyOp39
 70
     1
102
RTVSPropertyOp40
 70
     1
102
RTVSPropertyOp41
 70
     1
102
RTVSPropertyOp42
 70
     1
102
RTVSPropertyOp43
 70
     1
102
RTVSPropertyOp44
 70
     1
102
RTVSPropertyOp45
 70
     1
102
RTVSPropertyOp46
 70
     1
102
RTVSPropertyOp47
 70
     1
102
RTVSPropertyOp48
 70
     1
102
RTVSPropertyOp49
 70
     1
102
RTVSPropertyOp50
 70
     1
102
RTVSPropertyOp51
 70
     0
102
RTVSPropertyOp52
 70
     0
102
RTVSPropertyOp53
 70
     1
102
RTVSPropertyOp54
 70
     1
102
RTVSPropertyOp55
 70
     1
102
RTVSPropertyOp56
 70
     1
102
RTVSPropertyOp57
 70
     1
102
RTVSPost2010Prop28
280
     0
102
RTVSPost2010PropOp28
 70
     1
102
RTVSPost2010Prop29
280
     1
102
RTVSPost2010PropOp29
 70
     1
102
RTVSPost2010Prop30
280
     1
102
RTVSPost2010PropOp30
 70
     1
102
RTVSPost2010Prop31
280
     0
102
RTVSPost2010PropOp31
 70
     1
102
RTVSPost2010Prop32
280
     0
102
RTVSPost2010PropOp32
 70
     1
102
RTVSPost2010Prop33
280
     0
102
RTVSPost2010PropOp33
 70
     1
102
RTVSPost2010Prop34
280
     0
102
RTVSPost2010PropOp34
 70
     1
102
RTVSPost2010Prop35
280
     0
102
RTVSPost2010PropOp35
 70
     1
102
RTVSPost2010Prop36
280
     0
102
RTVSPost2010PropOp36
 70
     1
102
RTVSPost2010Prop37
 90
       50
102
RTVSPost2010PropOp37
 70
     1
102
RTVSPost2010Prop38
140
0.0
102
RTVSPost2010PropOp38
 70
     1
102
RTVSPost2010Prop39
140
1.0
102
RTVSPost2010PropOp39
 70
     1
102
RTVSPost2010Prop40
 90
        0
102
RTVSPost2010PropOp40
 70
     1
102
RTVSPost2010Prop41ColorIndex
 90
       18
102
RTVSPost2010Prop41ColorRGB
 90
        0
102
RTVSPost2010PropOp41
 70
     1
102
RTVSPost2010Prop42
 90
       50
102
RTVSPost2010PropOp42
 70
     1
102
RTVSPost2010Prop43
 90
        3
102
RTVSPost2010PropOp43
 70
     1
102
RTVSPost2010Prop44ColorIndex
 90
        5
102
RTVSPost2010Prop44ColorRGB
 90
      255
102
RTVSPost2010PropOp44
 70
     1
102
RTVSPost2010Prop45
280
     0
102
RTVSPost2010PropOp45
 70
     1
102
RTVSPost2010Prop46
 90
       50
102
RTVSPost2010PropOp46
 70
     1
102
RTVSPost2010Prop47
 90
       50
102
RTVSPost2010PropOp47
 70
     1
102
RTVSPost2010Prop48
 90
       50
102
RTVSPost2010PropOp48
 70
     1
102
RTVSPost2010Prop49
280
     0
102
RTVSPost2010PropOp49
 70
     1
102
RTVSPost2010Prop50
 90
       50
102
RTVSPost2010PropOp50
 70
     1
102
RTVSPost2010Prop51ColorIndex
 90
      256
102
RTVSPost2010Prop51ColorRGB
 90
-16777216
102
RTVSPost2010PropOp51
 70
     0
102
RTVSPost2010Prop52
140
1.0
102
RTVSPost2010PropOp52
 70
     0
102
RTVSPost2010Prop53
 90
        2
102
RTVSPost2010PropOp53
 70
     1
102
RTVSPost2010Prop54
  1
strokes_ogs.tif
102
RTVSPost2010PropOp54
 70
     1
102
RTVSPost2010Prop55
280
     0
102
RTVSPost2010PropOp55
 70
     1
102
RTVSPost2010Prop56
140
1.0
102
RTVSPost2010PropOp56
 70
     1
102
RTVSPost2010Prop57
140
1.0
102
RTVSPost2010PropOp57
 70
     1
  0
XRECORD
  5
201
102
{ACAD_REACTORS
330
200
102
}
330
200
100
AcDbXrecord
280
     1
102
RTVSPropertyOp0
 70
     1
102
RTVSPropertyOp1
 70
     1
102
RTVSPropertyOp2
 70
     1
102
RTVSPropertyOp3
 70
     1
102
RTVSPropertyOp4
 70
     1
102
RTVSPropertyOp5
 70
     1
102
RTVSPropertyOp6
 70
     1
102
RTVSPropertyOp7
 70
     1
102
RTVSPropertyOp8
 70
     1
102
RTVSPropertyOp9
 70
     1
102
RTVSPropertyOp10
 70
     1
102
RTVSPropertyOp11
 70
     1
102
RTVSPropertyOp12
 70
     1
102
RTVSPropertyOp13
 70
     1
102
RTVSPropertyOp14
 70
     1
102
RTVSPropertyOp15
 70
     1
102
RTVSPropertyOp16
 70
     1
102
RTVSPropertyOp17
 70
     1
102
RTVSPropertyOp18
 70
     1
102
RTVSPropertyOp19
 70
     1
102
RTVSPropertyOp20
 70
     1
102
RTVSPropertyOp21
 70
     1
102
RTVSPropertyOp22
 70
     1
102
RTVSPropertyOp23
 70
     1
102
RTVSPropertyOp24
 70
     1
102
RTVSPropertyOp25
 70
     1
102
RTVSPropertyOp26
 70
     1
102
RTVSPropertyOp27
 70
     1
102
RTVSPropertyOp28
 70
     1
102
RTVSPropertyOp29
 70
     1
102
RTVSPropertyOp30
 70
     1
102
RTVSPropertyOp31
 70
     1
102
RTVSPropertyOp32
 70
     1
102
RTVSPropertyOp33
 70
     1
102
RTVSPropertyOp34
 70
     1
102
RTVSPropertyOp35
 70
     1
102
RTVSPropertyOp36
 70
     1
102
RTVSPropertyOp37
 70
     1
102
RTVSPropertyOp38
 70
     1
102
RTVSPropertyOp39
 70
     1
102
RTVSPropertyOp40
 70
     1
102
RTVSPropertyOp41
 70
     1
102
RTVSPropertyOp42
 70
     1
102
RTVSPropertyOp43
 70
     1
102
RTVSPropertyOp44
 70
     1
102
RTVSPropertyOp45
 70
     1
102
RTVSPropertyOp46
 70
     1
102
RTVSPropertyOp47
 70
     1
102
RTVSPropertyOp48
 70
     1
102
RTVSPropertyOp49
 70
     1
102
RTVSPropertyOp50
 70
     1
102
RTVSPropertyOp51
 70
     0
102
RTVSPropertyOp52
 70
     0
102
RTVSPropertyOp53
 70
     1
102
RTVSPropertyOp54
 70
     1
102
RTVSPropertyOp55
 70
     1
102
RTVSPropertyOp56
 70
     1
102
RTVSPropertyOp57
 70
     1
102
RTVSPost2010Prop28
280
     0
102
RTVSPost2010PropOp28
 70
     1
102
RTVSPost2010Prop29
280
     1
102
RTVSPost2010PropOp29
 70
     1
102
RTVSPost2010Prop30
280
     1
102
RTVSPost2010PropOp30
 70
     1
102
RTVSPost2010Prop31
280
     0
102
RTVSPost2010PropOp31
 70
     1
102
RTVSPost2010Prop32
280
     0
102
RTVSPost2010PropOp32
 70
     1
102
RTVSPost2010Prop33
280
     0
102
RTVSPost2010PropOp33
 70
     1
102
RTVSPost2010Prop34
280
     0
102
RTVSPost2010PropOp34
 70
     1
102
RTVSPost2010Prop35
280
     0
102
RTVSPost2010PropOp35
 70
     1
102
RTVSPost2010Prop36
280
     0
102
RTVSPost2010PropOp36
 70
     1
102
RTVSPost2010Prop37
 90
       50
102
RTVSPost2010PropOp37
 70
     1
102
RTVSPost2010Prop38
140
0.0
102
RTVSPost2010PropOp38
 70
     1
102
RTVSPost2010Prop39
140
1.0
102
RTVSPost2010PropOp39
 70
     1
102
RTVSPost2010Prop40
 90
        0
102
RTVSPost2010PropOp40
 70
     1
102
RTVSPost2010Prop41ColorIndex
 90
       18
102
RTVSPost2010Prop41ColorRGB
 90
        0
102
RTVSPost2010PropOp41
 70
     1
102
RTVSPost2010Prop42
 90
       50
102
RTVSPost2010PropOp42
 70
     1
102
RTVSPost2010Prop43
 90
        3
102
RTVSPost2010PropOp43
 70
     1
102
RTVSPost2010Prop44ColorIndex
 90
        5
102
RTVSPost2010Prop44ColorRGB
 90
      255
102
RTVSPost2010PropOp44
 70
     1
102
RTVSPost2010Prop45
280
     0
102
RTVSPost2010PropOp45
 70
     1
102
RTVSPost2010Prop46
 90
       50
102
RTVSPost2010PropOp46
 70
     1
102
RTVSPost2010Prop47
 90
       50
102
RTVSPost2010PropOp47
 70
     1
102
RTVSPost2010Prop48
 90
       50
102
RTVSPost2010PropOp48
 70
     1
102
RTVSPost2010Prop49
280
     0
102
RTVSPost2010PropOp49
 70
     1
102
RTVSPost2010Prop50
 90
       50
102
RTVSPost2010PropOp50
 70
     1
102
RTVSPost2010Prop51ColorIndex
 90
      256
102
RTVSPost2010Prop51ColorRGB
 90
-16777216
102
RTVSPost2010PropOp51
 70
     0
102
RTVSPost2010Prop52
140
1.0
102
RTVSPost2010PropOp52
 70
     0
102
RTVSPost2010Prop53
 90
        2
102
RTVSPost2010PropOp53
 70
     1
102
RTVSPost2010Prop54
  1
strokes_ogs.tif
102
RTVSPost2010PropOp54
 70
     1
102
RTVSPost2010Prop55
280
     0
102
RTVSPost2010PropOp55
 70
     1
102
RTVSPost2010Prop56
140
1.0
102
RTVSPost2010PropOp56
 70
     1
102
RTVSPost2010Prop57
140
1.0
102
RTVSPost2010PropOp57
 70
     1
  0
XRECORD
  5
203
102
{ACAD_REACTORS
330
202
102
}
330
202
100
AcDbXrecord
280
     1
102
RTVSPropertyOp0
 70
     1
102
RTVSPropertyOp1
 70
     1
102
RTVSPropertyOp2
 70
     1
102
RTVSPropertyOp3
 70
     1
102
RTVSPropertyOp4
 70
     1
102
RTVSPropertyOp5
 70
     1
102
RTVSPropertyOp6
 70
     1
102
RTVSPropertyOp7
 70
     1
102
RTVSPropertyOp8
 70
     1
102
RTVSPropertyOp9
 70
     1
102
RTVSPropertyOp10
 70
     1
102
RTVSPropertyOp11
 70
     1
102
RTVSPropertyOp12
 70
     1
102
RTVSPropertyOp13
 70
     1
102
RTVSPropertyOp14
 70
     1
102
RTVSPropertyOp15
 70
     1
102
RTVSPropertyOp16
 70
     1
102
RTVSPropertyOp17
 70
     1
102
RTVSPropertyOp18
 70
     1
102
RTVSPropertyOp19
 70
     1
102
RTVSPropertyOp20
 70
     1
102
RTVSPropertyOp21
 70
     1
102
RTVSPropertyOp22
 70
     1
102
RTVSPropertyOp23
 70
     1
102
RTVSPropertyOp24
 70
     1
102
RTVSPropertyOp25
 70
     1
102
RTVSPropertyOp26
 70
     1
102
RTVSPropertyOp27
 70
     1
102
RTVSPropertyOp28
 70
     1
102
RTVSPropertyOp29
 70
     1
102
RTVSPropertyOp30
 70
     1
102
RTVSPropertyOp31
 70
     1
102
RTVSPropertyOp32
 70
     1
102
RTVSPropertyOp33
 70
     1
102
RTVSPropertyOp34
 70
     1
102
RTVSPropertyOp35
 70
     1
102
RTVSPropertyOp36
 70
     1
102
RTVSPropertyOp37
 70
     1
102
RTVSPropertyOp38
 70
     1
102
RTVSPropertyOp39
 70
     1
102
RTVSPropertyOp40
 70
     1
102
RTVSPropertyOp41
 70
     1
102
RTVSPropertyOp42
 70
     1
102
RTVSPropertyOp43
 70
     1
102
RTVSPropertyOp44
 70
     1
102
RTVSPropertyOp45
 70
     1
102
RTVSPropertyOp46
 70
     1
102
RTVSPropertyOp47
 70
     1
102
RTVSPropertyOp48
 70
     1
102
RTVSPropertyOp49
 70
     1
102
RTVSPropertyOp50
 70
     1
102
RTVSPropertyOp51
 70
     0
102
RTVSPropertyOp52
 70
     0
102
RTVSPropertyOp53
 70
     1
102
RTVSPropertyOp54
 70
     1
102
RTVSPropertyOp55
 70
     1
102
RTVSPropertyOp56
 70
     1
102
RTVSPropertyOp57
 70
     1
102
RTVSPost2010Prop28
280
     0
102
RTVSPost2010PropOp28
 70
     1
102
RTVSPost2010Prop29
280
     1
102
RTVSPost2010PropOp29
 70
     1
102
RTVSPost2010Prop30
280
     1
102
RTVSPost2010PropOp30
 70
     1
102
RTVSPost2010Prop31
280
     0
102
RTVSPost2010PropOp31
 70
     1
102
RTVSPost2010Prop32
280
     0
102
RTVSPost2010PropOp32
 70
     1
102
RTVSPost2010Prop33
280
     0
102
RTVSPost2010PropOp33
 70
     1
102
RTVSPost2010Prop34
280
     0
102
RTVSPost2010PropOp34
 70
     1
102
RTVSPost2010Prop35
280
     0
102
RTVSPost2010PropOp35
 70
     1
102
RTVSPost2010Prop36
280
     0
102
RTVSPost2010PropOp36
 70
     1
102
RTVSPost2010Prop37
 90
       50
102
RTVSPost2010PropOp37
 70
     1
102
RTVSPost2010Prop38
140
0.0
102
RTVSPost2010PropOp38
 70
     1
102
RTVSPost2010Prop39
140
1.0
102
RTVSPost2010PropOp39
 70
     1
102
RTVSPost2010Prop40
 90
        0
102
RTVSPost2010PropOp40
 70
     1
102
RTVSPost2010Prop41ColorIndex
 90
       18
102
RTVSPost2010Prop41ColorRGB
 90
        0
102
RTVSPost2010PropOp41
 70
     1
102
RTVSPost2010Prop42
 90
       50
102
RTVSPost2010PropOp42
 70
     1
102
RTVSPost2010Prop43
 90
        3
102
RTVSPost2010PropOp43
 70
     1
102
RTVSPost2010Prop44ColorIndex
 90
        5
102
RTVSPost2010Prop44ColorRGB
 90
      255
102
RTVSPost2010PropOp44
 70
     1
102
RTVSPost2010Prop45
280
     0
102
RTVSPost2010PropOp45
 70
     1
102
RTVSPost2010Prop46
 90
       50
102
RTVSPost2010PropOp46
 70
     1
102
RTVSPost2010Prop47
 90
       50
102
RTVSPost2010PropOp47
 70
     1
102
RTVSPost2010Prop48
 90
       50
102
RTVSPost2010PropOp48
 70
     1
102
RTVSPost2010Prop49
280
     0
102
RTVSPost2010PropOp49
 70
     1
102
RTVSPost2010Prop50
 90
       50
102
RTVSPost2010PropOp50
 70
     1
102
RTVSPost2010Prop51ColorIndex
 90
      256
102
RTVSPost2010Prop51ColorRGB
 90
-16777216
102
RTVSPost2010PropOp51
 70
     0
102
RTVSPost2010Prop52
140
1.0
102
RTVSPost2010PropOp52
 70
     0
102
RTVSPost2010Prop53
 90
        2
102
RTVSPost2010PropOp53
 70
     1
102
RTVSPost2010Prop54
  1
strokes_ogs.tif
102
RTVSPost2010PropOp54
 70
     1
102
RTVSPost2010Prop55
280
     0
102
RTVSPost2010PropOp55
 70
     1
102
RTVSPost2010Prop56
140
1.0
102
RTVSPost2010PropOp56
 70
     1
102
RTVSPost2010Prop57
140
1.0
102
RTVSPost2010PropOp57
 70
     1
  0
XRECORD
  5
213
102
{ACAD_REACTORS
330
212
102
}
330
212
100
AcDbXrecord
280
     1
102
RTVSPropertyOp0
 70
     0
102
RTVSPropertyOp1
 70
     0
102
RTVSPropertyOp2
 70
     0
102
RTVSPropertyOp3
 70
     0
102
RTVSPropertyOp4
 70
     0
102
RTVSPropertyOp5
 70
     0
102
RTVSPropertyOp6
 70
     0
102
RTVSPropertyOp7
 70
     0
102
RTVSPropertyOp8
 70
     0
102
RTVSPropertyOp9
 70
     0
102
RTVSPropertyOp10
 70
     0
102
RTVSPropertyOp11
 70
     0
102
RTVSPropertyOp12
 70
     0
102
RTVSPropertyOp13
 70
     0
102
RTVSPropertyOp14
 70
     2
102
RTVSPropertyOp15
 70
     0
102
RTVSPropertyOp16
 70
     0
102
RTVSPropertyOp17
 70
     0
102
RTVSPropertyOp18
 70
     0
102
RTVSPropertyOp19
 70
     0
102
RTVSPropertyOp20
 70
     0
102
RTVSPropertyOp21
 70
     0
102
RTVSPropertyOp22
 70
     0
102
RTVSPropertyOp23
 70
     0
102
RTVSPropertyOp24
 70
     0
102
RTVSPropertyOp25
 70
     0
102
RTVSPropertyOp26
 70
     0
102
RTVSPropertyOp27
 70
     0
102
RTVSPropertyOp28
 70
     0
102
RTVSPropertyOp29
 70
     0
102
RTVSPropertyOp30
 70
     0
102
RTVSPropertyOp31
 70
     0
102
RTVSPropertyOp32
 70
     0
102
RTVSPropertyOp33
 70
     0
102
RTVSPropertyOp34
 70
     0
102
RTVSPropertyOp35
 70
     0
102
RTVSPropertyOp36
 70
     0
102
RTVSPropertyOp37
 70
     0
102
RTVSPropertyOp38
 70
     0
102
RTVSPropertyOp39
 70
     0
102
RTVSPropertyOp40
 70
     0
102
RTVSPropertyOp41
 70
     0
102
RTVSPropertyOp42
 70
     0
102
RTVSPropertyOp43
 70
     0
102
RTVSPropertyOp44
 70
     0
102
RTVSPropertyOp45
 70
     0
102
RTVSPropertyOp46
 70
     0
102
RTVSPropertyOp47
 70
     0
102
RTVSPropertyOp48
 70
     0
102
RTVSPropertyOp49
 70
     0
102
RTVSPropertyOp50
 70
     0
102
RTVSPropertyOp51
 70
     0
102
RTVSPropertyOp52
 70
     0
102
RTVSPropertyOp53
 70
     0
102
RTVSPropertyOp54
 70
     0
102
RTVSPropertyOp55
 70
     0
102
RTVSPropertyOp56
 70
     0
102
RTVSPropertyOp57
 70
     0
102
RTVSPost2010Prop28
280
     0
102
RTVSPost2010PropOp28
 70
     0
102
RTVSPost2010Prop29
280
     1
102
RTVSPost2010PropOp29
 70
     0
102
RTVSPost2010Prop30
280
     1
102
RTVSPost2010PropOp30
 70
     0
102
RTVSPost2010Prop31
280
     0
102
RTVSPost2010PropOp31
 70
     0
102
RTVSPost2010Prop32
280
     0
102
RTVSPost2010PropOp32
 70
     0
102
RTVSPost2010Prop33
280
     0
102
RTVSPost2010PropOp33
 70
     0
102
RTVSPost2010Prop34
280
     0
102
RTVSPost2010PropOp34
 70
     0
102
RTVSPost2010Prop35
280
     0
102
RTVSPost2010PropOp35
 70
     0
102
RTVSPost2010Prop36
280
     0
102
RTVSPost2010PropOp36
 70
     0
102
RTVSPost2010Prop37
 90
       50
102
RTVSPost2010PropOp37
 70
     0
102
RTVSPost2010Prop38
140
0.0
102
RTVSPost2010PropOp38
 70
     0
102
RTVSPost2010Prop39
140
1.0
102
RTVSPost2010PropOp39
 70
     0
102
RTVSPost2010Prop40
 90
        0
102
RTVSPost2010PropOp40
 70
     0
102
RTVSPost2010Prop41ColorIndex
 90
       18
102
RTVSPost2010Prop41ColorRGB
 90
        0
102
RTVSPost2010PropOp41
 70
     0
102
RTVSPost2010Prop42
 90
       50
102
RTVSPost2010PropOp42
 70
     0
102
RTVSPost2010Prop43
 90
        3
102
RTVSPost2010PropOp43
 70
     0
102
RTVSPost2010Prop44ColorIndex
 90
        5
102
RTVSPost2010Prop44ColorRGB
 90
      255
102
RTVSPost2010PropOp44
 70
     0
102
RTVSPost2010Prop45
280
     0
102
RTVSPost2010PropOp45
 70
     0
102
RTVSPost2010Prop46
 90
       50
102
RTVSPost2010PropOp46
 70
     0
102
RTVSPost2010Prop47
 90
       50
102
RTVSPost2010PropOp47
 70
     0
102
RTVSPost2010Prop48
 90
       50
102
RTVSPost2010PropOp48
 70
     0
102
RTVSPost2010Prop49
280
     0
102
RTVSPost2010PropOp49
 70
     0
102
RTVSPost2010Prop50
 90
       50
102
RTVSPost2010PropOp50
 70
     0
102
RTVSPost2010Prop51ColorIndex
 90
      256
102
RTVSPost2010Prop51ColorRGB
 90
-16777216
102
RTVSPost2010PropOp51
 70
     0
102
RTVSPost2010Prop52
140
1.0
102
RTVSPost2010PropOp52
 70
     0
102
RTVSPost2010Prop53
 90
        2
102
RTVSPost2010PropOp53
 70
     0
102
RTVSPost2010Prop54
  1
strokes_ogs.tif
102
RTVSPost2010PropOp54
 70
     0
102
RTVSPost2010Prop55
280
     0
102
RTVSPost2010PropOp55
 70
     0
102
RTVSPost2010Prop56
140
1.0
102
RTVSPost2010PropOp56
 70
     0
102
RTVSPost2010Prop57
140
1.0
102
RTVSPost2010PropOp57
 70
     0
  0
XRECORD
  5
20B
102
{ACAD_REACTORS
330
20A
102
}
330
20A
100
AcDbXrecord
280
     1
102
RTVSPropertyOp0
 70
     1
102
RTVSPropertyOp1
 70
     1
102
RTVSPropertyOp2
 70
     1
102
RTVSPropertyOp3
 70
     1
102
RTVSPropertyOp4
 70
     1
102
RTVSPropertyOp5
 70
     1
102
RTVSPropertyOp6
 70
     1
102
RTVSPropertyOp7
 70
     1
102
RTVSPropertyOp8
 70
     1
102
RTVSPropertyOp9
 70
     1
102
RTVSPropertyOp10
 70
     1
102
RTVSPropertyOp11
 70
     1
102
RTVSPropertyOp12
 70
     1
102
RTVSPropertyOp13
 70
     1
102
RTVSPropertyOp14
 70
     1
102
RTVSPropertyOp15
 70
     1
102
RTVSPropertyOp16
 70
     1
102
RTVSPropertyOp17
 70
     1
102
RTVSPropertyOp18
 70
     1
102
RTVSPropertyOp19
 70
     1
102
RTVSPropertyOp20
 70
     1
102
RTVSPropertyOp21
 70
     1
102
RTVSPropertyOp22
 70
     1
102
RTVSPropertyOp23
 70
     1
102
RTVSPropertyOp24
 70
     1
102
RTVSPropertyOp25
 70
     1
102
RTVSPropertyOp26
 70
     1
102
RTVSPropertyOp27
 70
     1
102
RTVSPropertyOp28
 70
     1
102
RTVSPropertyOp29
 70
     1
102
RTVSPropertyOp30
 70
     1
102
RTVSPropertyOp31
 70
     1
102
RTVSPropertyOp32
 70
     1
102
RTVSPropertyOp33
 70
     1
102
RTVSPropertyOp34
 70
     1
102
RTVSPropertyOp35
 70
     1
102
RTVSPropertyOp36
 70
     1
102
RTVSPropertyOp37
 70
     1
102
RTVSPropertyOp38
 70
     1
102
RTVSPropertyOp39
 70
     1
102
RTVSPropertyOp40
 70
     1
102
RTVSPropertyOp41
 70
     1
102
RTVSPropertyOp42
 70
     1
102
RTVSPropertyOp43
 70
     1
102
RTVSPropertyOp44
 70
     1
102
RTVSPropertyOp45
 70
     1
102
RTVSPropertyOp46
 70
     1
102
RTVSPropertyOp47
 70
     1
102
RTVSPropertyOp48
 70
     1
102
RTVSPropertyOp49
 70
     1
102
RTVSPropertyOp50
 70
     1
102
RTVSPropertyOp51
 70
     0
102
RTVSPropertyOp52
 70
     0
102
RTVSPropertyOp53
 70
     1
102
RTVSPropertyOp54
 70
     1
102
RTVSPropertyOp55
 70
     1
102
RTVSPropertyOp56
 70
     1
102
RTVSPropertyOp57
 70
     1
102
RTVSPost2010Prop28
280
     0
102
RTVSPost2010PropOp28
 70
     1
102
RTVSPost2010Prop29
280
     1
102
RTVSPost2010PropOp29
 70
     1
102
RTVSPost2010Prop30
280
     1
102
RTVSPost2010PropOp30
 70
     1
102
RTVSPost2010Prop31
280
     0
102
RTVSPost2010PropOp31
 70
     1
102
RTVSPost2010Prop32
280
     0
102
RTVSPost2010PropOp32
 70
     1
102
RTVSPost2010Prop33
280
     0
102
RTVSPost2010PropOp33
 70
     1
102
RTVSPost2010Prop34
280
     0
102
RTVSPost2010PropOp34
 70
     1
102
RTVSPost2010Prop35
280
     0
102
RTVSPost2010PropOp35
 70
     1
102
RTVSPost2010Prop36
280
     0
102
RTVSPost2010PropOp36
 70
     1
102
RTVSPost2010Prop37
 90
       50
102
RTVSPost2010PropOp37
 70
     1
102
RTVSPost2010Prop38
140
0.0
102
RTVSPost2010PropOp38
 70
     1
102
RTVSPost2010Prop39
140
1.0
102
RTVSPost2010PropOp39
 70
     1
102
RTVSPost2010Prop40
 90
        0
102
RTVSPost2010PropOp40
 70
     1
102
RTVSPost2010Prop41ColorIndex
 90
       18
102
RTVSPost2010Prop41ColorRGB
 90
        0
102
RTVSPost2010PropOp41
 70
     1
102
RTVSPost2010Prop42
 90
       50
102
RTVSPost2010PropOp42
 70
     1
102
RTVSPost2010Prop43
 90
        3
102
RTVSPost2010PropOp43
 70
     1
102
RTVSPost2010Prop44ColorIndex
 90
        5
102
RTVSPost2010Prop44ColorRGB
 90
      255
102
RTVSPost2010PropOp44
 70
     1
102
RTVSPost2010Prop45
280
     0
102
RTVSPost2010PropOp45
 70
     1
102
RTVSPost2010Prop46
 90
       50
102
RTVSPost2010PropOp46
 70
     1
102
RTVSPost2010Prop47
 90
       50
102
RTVSPost2010PropOp47
 70
     1
102
RTVSPost2010Prop48
 90
       50
102
RTVSPost2010PropOp48
 70
     1
102
RTVSPost2010Prop49
280
     0
102
RTVSPost2010PropOp49
 70
     1
102
RTVSPost2010Prop50
 90
       50
102
RTVSPost2010PropOp50
 70
     1
102
RTVSPost2010Prop51ColorIndex
 90
      256
102
RTVSPost2010Prop51ColorRGB
 90
-16777216
102
RTVSPost2010PropOp51
 70
     0
102
RTVSPost2010Prop52
140
1.0
102
RTVSPost2010PropOp52
 70
     0
102
RTVSPost2010Prop53
 90
        2
102
RTVSPost2010PropOp53
 70
     1
102
RTVSPost2010Prop54
  1
strokes_ogs.tif
102
RTVSPost2010PropOp54
 70
     1
102
RTVSPost2010Prop55
280
     0
102
RTVSPost2010PropOp55
 70
     1
102
RTVSPost2010Prop56
140
1.0
102
RTVSPost2010PropOp56
 70
     1
102
RTVSPost2010Prop57
140
1.0
102
RTVSPost2010PropOp57
 70
     1
  0
XRECORD
  5
1EF
102
{ACAD_REACTORS
330
1EE
102
}
330
1EE
100
AcDbXrecord
280
     1
102
RTVSPropertyOp0
 70
     1
102
RTVSPropertyOp1
 70
     1
102
RTVSPropertyOp2
 70
     1
102
RTVSPropertyOp3
 70
     1
102
RTVSPropertyOp4
 70
     1
102
RTVSPropertyOp5
 70
     1
102
RTVSPropertyOp6
 70
     1
102
RTVSPropertyOp7
 70
     1
102
RTVSPropertyOp8
 70
     1
102
RTVSPropertyOp9
 70
     1
102
RTVSPropertyOp10
 70
     1
102
RTVSPropertyOp11
 70
     1
102
RTVSPropertyOp12
 70
     1
102
RTVSPropertyOp13
 70
     1
102
RTVSPropertyOp14
 70
     1
102
RTVSPropertyOp15
 70
     1
102
RTVSPropertyOp16
 70
     1
102
RTVSPropertyOp17
 70
     1
102
RTVSPropertyOp18
 70
     1
102
RTVSPropertyOp19
 70
     1
102
RTVSPropertyOp20
 70
     1
102
RTVSPropertyOp21
 70
     1
102
RTVSPropertyOp22
 70
     1
102
RTVSPropertyOp23
 70
     1
102
RTVSPropertyOp24
 70
     1
102
RTVSPropertyOp25
 70
     1
102
RTVSPropertyOp26
 70
     1
102
RTVSPropertyOp27
 70
     1
102
RTVSPropertyOp28
 70
     1
102
RTVSPropertyOp29
 70
     1
102
RTVSPropertyOp30
 70
     1
102
RTVSPropertyOp31
 70
     1
102
RTVSPropertyOp32
 70
     1
102
RTVSPropertyOp33
 70
     1
102
RTVSPropertyOp34
 70
     1
102
RTVSPropertyOp35
 70
     1
102
RTVSPropertyOp36
 70
     1
102
RTVSPropertyOp37
 70
     1
102
RTVSPropertyOp38
 70
     1
102
RTVSPropertyOp39
 70
     1
102
RTVSPropertyOp40
 70
     1
102
RTVSPropertyOp41
 70
     1
102
RTVSPropertyOp42
 70
     1
102
RTVSPropertyOp43
 70
     1
102
RTVSPropertyOp44
 70
     1
102
RTVSPropertyOp45
 70
     1
102
RTVSPropertyOp46
 70
     1
102
RTVSPropertyOp47
 70
     1
102
RTVSPropertyOp48
 70
     1
102
RTVSPropertyOp49
 70
     1
102
RTVSPropertyOp50
 70
     1
102
RTVSPropertyOp51
 70
     0
102
RTVSPropertyOp52
 70
     0
102
RTVSPropertyOp53
 70
     1
102
RTVSPropertyOp54
 70
     1
102
RTVSPropertyOp55
 70
     1
102
RTVSPropertyOp56
 70
     1
102
RTVSPropertyOp57
 70
     1
102
RTVSPost2010Prop28
280
     0
102
RTVSPost2010PropOp28
 70
     1
102
RTVSPost2010Prop29
280
     1
102
RTVSPost2010PropOp29
 70
     1
102
RTVSPost2010Prop30
280
     1
102
RTVSPost2010PropOp30
 70
     1
102
RTVSPost2010Prop31
280
     0
102
RTVSPost2010PropOp31
 70
     1
102
RTVSPost2010Prop32
280
     0
102
RTVSPost2010PropOp32
 70
     1
102
RTVSPost2010Prop33
280
     0
102
RTVSPost2010PropOp33
 70
     1
102
RTVSPost2010Prop34
280
     0
102
RTVSPost2010PropOp34
 70
     1
102
RTVSPost2010Prop35
280
     0
102
RTVSPost2010PropOp35
 70
     1
102
RTVSPost2010Prop36
280
     0
102
RTVSPost2010PropOp36
 70
     1
102
RTVSPost2010Prop37
 90
       50
102
RTVSPost2010PropOp37
 70
     1
102
RTVSPost2010Prop38
140
0.0
102
RTVSPost2010PropOp38
 70
     1
102
RTVSPost2010Prop39
140
1.0
102
RTVSPost2010PropOp39
 70
     1
102
RTVSPost2010Prop40
 90
        0
102
RTVSPost2010PropOp40
 70
     1
102
RTVSPost2010Prop41ColorIndex
 90
       18
102
RTVSPost2010Prop41ColorRGB
 90
        0
102
RTVSPost2010PropOp41
 70
     1
102
RTVSPost2010Prop42
 90
       50
102
RTVSPost2010PropOp42
 70
     1
102
RTVSPost2010Prop43
 90
        3
102
RTVSPost2010PropOp43
 70
     1
102
RTVSPost2010Prop44ColorIndex
 90
        5
102
RTVSPost2010Prop44ColorRGB
 90
      255
102
RTVSPost2010PropOp44
 70
     1
102
RTVSPost2010Prop45
280
     0
102
RTVSPost2010PropOp45
 70
     1
102
RTVSPost2010Prop46
 90
       50
102
RTVSPost2010PropOp46
 70
     1
102
RTVSPost2010Prop47
 90
       50
102
RTVSPost2010PropOp47
 70
     1
102
RTVSPost2010Prop48
 90
       50
102
RTVSPost2010PropOp48
 70
     1
102
RTVSPost2010Prop49
280
     0
102
RTVSPost2010PropOp49
 70
     1
102
RTVSPost2010Prop50
 90
       50
102
RTVSPost2010PropOp50
 70
     1
102
RTVSPost2010Prop51ColorIndex
 90
      256
102
RTVSPost2010Prop51ColorRGB
 90
-16777216
102
RTVSPost2010PropOp51
 70
     0
102
RTVSPost2010Prop52
140
1.0
102
RTVSPost2010PropOp52
 70
     0
102
RTVSPost2010Prop53
 90
        2
102
RTVSPost2010PropOp53
 70
     1
102
RTVSPost2010Prop54
  1
strokes_ogs.tif
102
RTVSPost2010PropOp54
 70
     1
102
RTVSPost2010Prop55
280
     0
102
RTVSPost2010PropOp55
 70
     1
102
RTVSPost2010Prop56
140
1.0
102
RTVSPost2010PropOp56
 70
     1
102
RTVSPost2010Prop57
140
1.0
102
RTVSPost2010PropOp57
 70
     1
  0
XRECORD
  5
1F1
102
{ACAD_REACTORS
330
1F0
102
}
330
1F0
100
AcDbXrecord
280
     1
102
RTVSPropertyOp0
 70
     1
102
RTVSPropertyOp1
 70
     1
102
RTVSPropertyOp2
 70
     1
102
RTVSPropertyOp3
 70
     1
102
RTVSPropertyOp4
 70
     1
102
RTVSPropertyOp5
 70
     1
102
RTVSPropertyOp6
 70
     1
102
RTVSPropertyOp7
 70
     1
102
RTVSPropertyOp8
 70
     1
102
RTVSPropertyOp9
 70
     1
102
RTVSPropertyOp10
 70
     1
102
RTVSPropertyOp11
 70
     1
102
RTVSPropertyOp12
 70
     1
102
RTVSPropertyOp13
 70
     1
102
RTVSPropertyOp14
 70
     1
102
RTVSPropertyOp15
 70
     1
102
RTVSPropertyOp16
 70
     1
102
RTVSPropertyOp17
 70
     1
102
RTVSPropertyOp18
 70
     1
102
RTVSPropertyOp19
 70
     1
102
RTVSPropertyOp20
 70
     1
102
RTVSPropertyOp21
 70
     1
102
RTVSPropertyOp22
 70
     1
102
RTVSPropertyOp23
 70
     1
102
RTVSPropertyOp24
 70
     1
102
RTVSPropertyOp25
 70
     1
102
RTVSPropertyOp26
 70
     1
102
RTVSPropertyOp27
 70
     1
102
RTVSPropertyOp28
 70
     1
102
RTVSPropertyOp29
 70
     1
102
RTVSPropertyOp30
 70
     1
102
RTVSPropertyOp31
 70
     1
102
RTVSPropertyOp32
 70
     1
102
RTVSPropertyOp33
 70
     1
102
RTVSPropertyOp34
 70
     1
102
RTVSPropertyOp35
 70
     1
102
RTVSPropertyOp36
 70
     1
102
RTVSPropertyOp37
 70
     1
102
RTVSPropertyOp38
 70
     1
102
RTVSPropertyOp39
 70
     1
102
RTVSPropertyOp40
 70
     1
102
RTVSPropertyOp41
 70
     1
102
RTVSPropertyOp42
 70
     1
102
RTVSPropertyOp43
 70
     1
102
RTVSPropertyOp44
 70
     1
102
RTVSPropertyOp45
 70
     1
102
RTVSPropertyOp46
 70
     1
102
RTVSPropertyOp47
 70
     1
102
RTVSPropertyOp48
 70
     1
102
RTVSPropertyOp49
 70
     1
102
RTVSPropertyOp50
 70
     1
102
RTVSPropertyOp51
 70
     0
102
RTVSPropertyOp52
 70
     0
102
RTVSPropertyOp53
 70
     1
102
RTVSPropertyOp54
 70
     1
102
RTVSPropertyOp55
 70
     1
102
RTVSPropertyOp56
 70
     1
102
RTVSPropertyOp57
 70
     1
102
RTVSPost2010Prop28
280
     0
102
RTVSPost2010PropOp28
 70
     1
102
RTVSPost2010Prop29
280
     1
102
RTVSPost2010PropOp29
 70
     1
102
RTVSPost2010Prop30
280
     1
102
RTVSPost2010PropOp30
 70
     1
102
RTVSPost2010Prop31
280
     0
102
RTVSPost2010PropOp31
 70
     1
102
RTVSPost2010Prop32
280
     0
102
RTVSPost2010PropOp32
 70
     1
102
RTVSPost2010Prop33
280
     0
102
RTVSPost2010PropOp33
 70
     1
102
RTVSPost2010Prop34
280
     0
102
RTVSPost2010PropOp34
 70
     1
102
RTVSPost2010Prop35
280
     0
102
RTVSPost2010PropOp35
 70
     1
102
RTVSPost2010Prop36
280
     0
102
RTVSPost2010PropOp36
 70
     1
102
RTVSPost2010Prop37
 90
       50
102
RTVSPost2010PropOp37
 70
     1
102
RTVSPost2010Prop38
140
0.0
102
RTVSPost2010PropOp38
 70
     1
102
RTVSPost2010Prop39
140
1.0
102
RTVSPost2010PropOp39
 70
     1
102
RTVSPost2010Prop40
 90
        0
102
RTVSPost2010PropOp40
 70
     1
102
RTVSPost2010Prop41ColorIndex
 90
       18
102
RTVSPost2010Prop41ColorRGB
 90
        0
102
RTVSPost2010PropOp41
 70
     1
102
RTVSPost2010Prop42
 90
       50
102
RTVSPost2010PropOp42
 70
     1
102
RTVSPost2010Prop43
 90
        3
102
RTVSPost2010PropOp43
 70
     1
102
RTVSPost2010Prop44ColorIndex
 90
        5
102
RTVSPost2010Prop44ColorRGB
 90
      255
102
RTVSPost2010PropOp44
 70
     1
102
RTVSPost2010Prop45
280
     0
102
RTVSPost2010PropOp45
 70
     1
102
RTVSPost2010Prop46
 90
       50
102
RTVSPost2010PropOp46
 70
     1
102
RTVSPost2010Prop47
 90
       50
102
RTVSPost2010PropOp47
 70
     1
102
RTVSPost2010Prop48
 90
       50
102
RTVSPost2010PropOp48
 70
     1
102
RTVSPost2010Prop49
280
     0
102
RTVSPost2010PropOp49
 70
     1
102
RTVSPost2010Prop50
 90
       50
102
RTVSPost2010PropOp50
 70
     1
102
RTVSPost2010Prop51ColorIndex
 90
      256
102
RTVSPost2010Prop51ColorRGB
 90
-16777216
102
RTVSPost2010PropOp51
 70
     0
102
RTVSPost2010Prop52
140
1.0
102
RTVSPost2010PropOp52
 70
     0
102
RTVSPost2010Prop53
 90
        2
102
RTVSPost2010PropOp53
 70
     1
102
RTVSPost2010Prop54
  1
strokes_ogs.tif
102
RTVSPost2010PropOp54
 70
     1
102
RTVSPost2010Prop55
280
     0
102
RTVSPost2010PropOp55
 70
     1
102
RTVSPost2010Prop56
140
1.0
102
RTVSPost2010PropOp56
 70
     1
102
RTVSPost2010Prop57
140
1.0
102
RTVSPost2010PropOp57
 70
     1
  0
XRECORD
  5
1F3
102
{ACAD_REACTORS
330
1F2
102
}
330
1F2
100
AcDbXrecord
280
     1
102
RTVSPropertyOp0
 70
     1
102
RTVSPropertyOp1
 70
     1
102
RTVSPropertyOp2
 70
     1
102
RTVSPropertyOp3
 70
     1
102
RTVSPropertyOp4
 70
     1
102
RTVSPropertyOp5
 70
     1
102
RTVSPropertyOp6
 70
     1
102
RTVSPropertyOp7
 70
     1
102
RTVSPropertyOp8
 70
     1
102
RTVSPropertyOp9
 70
     1
102
RTVSPropertyOp10
 70
     1
102
RTVSPropertyOp11
 70
     1
102
RTVSPropertyOp12
 70
     1
102
RTVSPropertyOp13
 70
     1
102
RTVSPropertyOp14
 70
     1
102
RTVSPropertyOp15
 70
     1
102
RTVSPropertyOp16
 70
     1
102
RTVSPropertyOp17
 70
     1
102
RTVSPropertyOp18
 70
     1
102
RTVSPropertyOp19
 70
     1
102
RTVSPropertyOp20
 70
     1
102
RTVSPropertyOp21
 70
     1
102
RTVSPropertyOp22
 70
     1
102
RTVSPropertyOp23
 70
     1
102
RTVSPropertyOp24
 70
     1
102
RTVSPropertyOp25
 70
     1
102
RTVSPropertyOp26
 70
     1
102
RTVSPropertyOp27
 70
     1
102
RTVSPropertyOp28
 70
     1
102
RTVSPropertyOp29
 70
     1
102
RTVSPropertyOp30
 70
     1
102
RTVSPropertyOp31
 70
     1
102
RTVSPropertyOp32
 70
     1
102
RTVSPropertyOp33
 70
     1
102
RTVSPropertyOp34
 70
     1
102
RTVSPropertyOp35
 70
     1
102
RTVSPropertyOp36
 70
     1
102
RTVSPropertyOp37
 70
     1
102
RTVSPropertyOp38
 70
     1
102
RTVSPropertyOp39
 70
     1
102
RTVSPropertyOp40
 70
     1
102
RTVSPropertyOp41
 70
     1
102
RTVSPropertyOp42
 70
     1
102
RTVSPropertyOp43
 70
     1
102
RTVSPropertyOp44
 70
     1
102
RTVSPropertyOp45
 70
     1
102
RTVSPropertyOp46
 70
     1
102
RTVSPropertyOp47
 70
     1
102
RTVSPropertyOp48
 70
     1
102
RTVSPropertyOp49
 70
     1
102
RTVSPropertyOp50
 70
     1
102
RTVSPropertyOp51
 70
     0
102
RTVSPropertyOp52
 70
     0
102
RTVSPropertyOp53
 70
     1
102
RTVSPropertyOp54
 70
     1
102
RTVSPropertyOp55
 70
     1
102
RTVSPropertyOp56
 70
     1
102
RTVSPropertyOp57
 70
     1
102
RTVSPost2010Prop28
280
     0
102
RTVSPost2010PropOp28
 70
     1
102
RTVSPost2010Prop29
280
     1
102
RTVSPost2010PropOp29
 70
     1
102
RTVSPost2010Prop30
280
     1
102
RTVSPost2010PropOp30
 70
     1
102
RTVSPost2010Prop31
280
     0
102
RTVSPost2010PropOp31
 70
     1
102
RTVSPost2010Prop32
280
     0
102
RTVSPost2010PropOp32
 70
     1
102
RTVSPost2010Prop33
280
     0
102
RTVSPost2010PropOp33
 70
     1
102
RTVSPost2010Prop34
280
     0
102
RTVSPost2010PropOp34
 70
     1
102
RTVSPost2010Prop35
280
     0
102
RTVSPost2010PropOp35
 70
     1
102
RTVSPost2010Prop36
280
     0
102
RTVSPost2010PropOp36
 70
     1
102
RTVSPost2010Prop37
 90
       50
102
RTVSPost2010PropOp37
 70
     1
102
RTVSPost2010Prop38
140
0.0
102
RTVSPost2010PropOp38
 70
     1
102
RTVSPost2010Prop39
140
1.0
102
RTVSPost2010PropOp39
 70
     1
102
RTVSPost2010Prop40
 90
        0
102
RTVSPost2010PropOp40
 70
     1
102
RTVSPost2010Prop41ColorIndex
 90
       18
102
RTVSPost2010Prop41ColorRGB
 90
        0
102
RTVSPost2010PropOp41
 70
     1
102
RTVSPost2010Prop42
 90
       50
102
RTVSPost2010PropOp42
 70
     1
102
RTVSPost2010Prop43
 90
        3
102
RTVSPost2010PropOp43
 70
     1
102
RTVSPost2010Prop44ColorIndex
 90
        5
102
RTVSPost2010Prop44ColorRGB
 90
      255
102
RTVSPost2010PropOp44
 70
     1
102
RTVSPost2010Prop45
280
     0
102
RTVSPost2010PropOp45
 70
     1
102
RTVSPost2010Prop46
 90
       50
102
RTVSPost2010PropOp46
 70
     1
102
RTVSPost2010Prop47
 90
       50
102
RTVSPost2010PropOp47
 70
     1
102
RTVSPost2010Prop48
 90
       50
102
RTVSPost2010PropOp48
 70
     1
102
RTVSPost2010Prop49
280
     0
102
RTVSPost2010PropOp49
 70
     1
102
RTVSPost2010Prop50
 90
       50
102
RTVSPost2010PropOp50
 70
     1
102
RTVSPost2010Prop51ColorIndex
 90
      256
102
RTVSPost2010Prop51ColorRGB
 90
-16777216
102
RTVSPost2010PropOp51
 70
     0
102
RTVSPost2010Prop52
140
1.0
102
RTVSPost2010PropOp52
 70
     0
102
RTVSPost2010Prop53
 90
        2
102
RTVSPost2010PropOp53
 70
     1
102
RTVSPost2010Prop54
  1
strokes_ogs.tif
102
RTVSPost2010PropOp54
 70
     1
102
RTVSPost2010Prop55
280
     0
102
RTVSPost2010PropOp55
 70
     1
102
RTVSPost2010Prop56
140
1.0
102
RTVSPost2010PropOp56
 70
     1
102
RTVSPost2010Prop57
140
1.0
102
RTVSPost2010PropOp57
 70
     1
  0
XRECORD
  5
1F5
102
{ACAD_REACTORS
330
1F4
102
}
330
1F4
100
AcDbXrecord
280
     1
102
RTVSPropertyOp0
 70
     1
102
RTVSPropertyOp1
 70
     1
102
RTVSPropertyOp2
 70
     1
102
RTVSPropertyOp3
 70
     1
102
RTVSPropertyOp4
 70
     1
102
RTVSPropertyOp5
 70
     1
102
RTVSPropertyOp6
 70
     1
102
RTVSPropertyOp7
 70
     1
102
RTVSPropertyOp8
 70
     1
102
RTVSPropertyOp9
 70
     1
102
RTVSPropertyOp10
 70
     1
102
RTVSPropertyOp11
 70
     1
102
RTVSPropertyOp12
 70
     1
102
RTVSPropertyOp13
 70
     1
102
RTVSPropertyOp14
 70
     1
102
RTVSPropertyOp15
 70
     1
102
RTVSPropertyOp16
 70
     1
102
RTVSPropertyOp17
 70
     1
102
RTVSPropertyOp18
 70
     1
102
RTVSPropertyOp19
 70
     1
102
RTVSPropertyOp20
 70
     1
102
RTVSPropertyOp21
 70
     1
102
RTVSPropertyOp22
 70
     1
102
RTVSPropertyOp23
 70
     1
102
RTVSPropertyOp24
 70
     1
102
RTVSPropertyOp25
 70
     1
102
RTVSPropertyOp26
 70
     1
102
RTVSPropertyOp27
 70
     1
102
RTVSPropertyOp28
 70
     1
102
RTVSPropertyOp29
 70
     1
102
RTVSPropertyOp30
 70
     1
102
RTVSPropertyOp31
 70
     1
102
RTVSPropertyOp32
 70
     1
102
RTVSPropertyOp33
 70
     1
102
RTVSPropertyOp34
 70
     1
102
RTVSPropertyOp35
 70
     1
102
RTVSPropertyOp36
 70
     1
102
RTVSPropertyOp37
 70
     1
102
RTVSPropertyOp38
 70
     1
102
RTVSPropertyOp39
 70
     1
102
RTVSPropertyOp40
 70
     1
102
RTVSPropertyOp41
 70
     1
102
RTVSPropertyOp42
 70
     1
102
RTVSPropertyOp43
 70
     1
102
RTVSPropertyOp44
 70
     1
102
RTVSPropertyOp45
 70
     1
102
RTVSPropertyOp46
 70
     1
102
RTVSPropertyOp47
 70
     1
102
RTVSPropertyOp48
 70
     1
102
RTVSPropertyOp49
 70
     1
102
RTVSPropertyOp50
 70
     1
102
RTVSPropertyOp51
 70
     0
102
RTVSPropertyOp52
 70
     0
102
RTVSPropertyOp53
 70
     1
102
RTVSPropertyOp54
 70
     1
102
RTVSPropertyOp55
 70
     1
102
RTVSPropertyOp56
 70
     1
102
RTVSPropertyOp57
 70
     1
102
RTVSPost2010Prop28
280
     0
102
RTVSPost2010PropOp28
 70
     1
102
RTVSPost2010Prop29
280
     1
102
RTVSPost2010PropOp29
 70
     1
102
RTVSPost2010Prop30
280
     1
102
RTVSPost2010PropOp30
 70
     1
102
RTVSPost2010Prop31
280
     0
102
RTVSPost2010PropOp31
 70
     1
102
RTVSPost2010Prop32
280
     0
102
RTVSPost2010PropOp32
 70
     1
102
RTVSPost2010Prop33
280
     0
102
RTVSPost2010PropOp33
 70
     1
102
RTVSPost2010Prop34
280
     0
102
RTVSPost2010PropOp34
 70
     1
102
RTVSPost2010Prop35
280
     0
102
RTVSPost2010PropOp35
 70
     1
102
RTVSPost2010Prop36
280
     0
102
RTVSPost2010PropOp36
 70
     1
102
RTVSPost2010Prop37
 90
       50
102
RTVSPost2010PropOp37
 70
     1
102
RTVSPost2010Prop38
140
0.0
102
RTVSPost2010PropOp38
 70
     1
102
RTVSPost2010Prop39
140
1.0
102
RTVSPost2010PropOp39
 70
     1
102
RTVSPost2010Prop40
 90
        0
102
RTVSPost2010PropOp40
 70
     1
102
RTVSPost2010Prop41ColorIndex
 90
       18
102
RTVSPost2010Prop41ColorRGB
 90
        0
102
RTVSPost2010PropOp41
 70
     1
102
RTVSPost2010Prop42
 90
       50
102
RTVSPost2010PropOp42
 70
     1
102
RTVSPost2010Prop43
 90
        3
102
RTVSPost2010PropOp43
 70
     1
102
RTVSPost2010Prop44ColorIndex
 90
        5
102
RTVSPost2010Prop44ColorRGB
 90
      255
102
RTVSPost2010PropOp44
 70
     1
102
RTVSPost2010Prop45
280
     0
102
RTVSPost2010PropOp45
 70
     1
102
RTVSPost2010Prop46
 90
       50
102
RTVSPost2010PropOp46
 70
     1
102
RTVSPost2010Prop47
 90
       50
102
RTVSPost2010PropOp47
 70
     1
102
RTVSPost2010Prop48
 90
       50
102
RTVSPost2010PropOp48
 70
     1
102
RTVSPost2010Prop49
280
     0
102
RTVSPost2010PropOp49
 70
     1
102
RTVSPost2010Prop50
 90
       50
102
RTVSPost2010PropOp50
 70
     1
102
RTVSPost2010Prop51ColorIndex
 90
      256
102
RTVSPost2010Prop51ColorRGB
 90
-16777216
102
RTVSPost2010PropOp51
 70
     0
102
RTVSPost2010Prop52
140
1.0
102
RTVSPost2010PropOp52
 70
     0
102
RTVSPost2010Prop53
 90
        2
102
RTVSPost2010PropOp53
 70
     1
102
RTVSPost2010Prop54
  1
strokes_ogs.tif
102
RTVSPost2010PropOp54
 70
     1
102
RTVSPost2010Prop55
280
     0
102
RTVSPost2010PropOp55
 70
     1
102
RTVSPost2010Prop56
140
1.0
102
RTVSPost2010PropOp56
 70
     1
102
RTVSPost2010Prop57
140
1.0
102
RTVSPost2010PropOp57
 70
     1
  0
XRECORD
  5
1FB
102
{ACAD_REACTORS
330
1FA
102
}
330
1FA
100
AcDbXrecord
280
     1
102
RTVSPropertyOp0
 70
     1
102
RTVSPropertyOp1
 70
     1
102
RTVSPropertyOp2
 70
     1
102
RTVSPropertyOp3
 70
     1
102
RTVSPropertyOp4
 70
     1
102
RTVSPropertyOp5
 70
     1
102
RTVSPropertyOp6
 70
     1
102
RTVSPropertyOp7
 70
     1
102
RTVSPropertyOp8
 70
     1
102
RTVSPropertyOp9
 70
     1
102
RTVSPropertyOp10
 70
     1
102
RTVSPropertyOp11
 70
     1
102
RTVSPropertyOp12
 70
     1
102
RTVSPropertyOp13
 70
     1
102
RTVSPropertyOp14
 70
     1
102
RTVSPropertyOp15
 70
     1
102
RTVSPropertyOp16
 70
     1
102
RTVSPropertyOp17
 70
     1
102
RTVSPropertyOp18
 70
     1
102
RTVSPropertyOp19
 70
     1
102
RTVSPropertyOp20
 70
     1
102
RTVSPropertyOp21
 70
     1
102
RTVSPropertyOp22
 70
     1
102
RTVSPropertyOp23
 70
     1
102
RTVSPropertyOp24
 70
     1
102
RTVSPropertyOp25
 70
     1
102
RTVSPropertyOp26
 70
     1
102
RTVSPropertyOp27
 70
     1
102
RTVSPropertyOp28
 70
     1
102
RTVSPropertyOp29
 70
     1
102
RTVSPropertyOp30
 70
     1
102
RTVSPropertyOp31
 70
     1
102
RTVSPropertyOp32
 70
     1
102
RTVSPropertyOp33
 70
     1
102
RTVSPropertyOp34
 70
     1
102
RTVSPropertyOp35
 70
     1
102
RTVSPropertyOp36
 70
     1
102
RTVSPropertyOp37
 70
     1
102
RTVSPropertyOp38
 70
     1
102
RTVSPropertyOp39
 70
     1
102
RTVSPropertyOp40
 70
     1
102
RTVSPropertyOp41
 70
     1
102
RTVSPropertyOp42
 70
     1
102
RTVSPropertyOp43
 70
     1
102
RTVSPropertyOp44
 70
     1
102
RTVSPropertyOp45
 70
     1
102
RTVSPropertyOp46
 70
     1
102
RTVSPropertyOp47
 70
     1
102
RTVSPropertyOp48
 70
     1
102
RTVSPropertyOp49
 70
     1
102
RTVSPropertyOp50
 70
     1
102
RTVSPropertyOp51
 70
     0
102
RTVSPropertyOp52
 70
     0
102
RTVSPropertyOp53
 70
     1
102
RTVSPropertyOp54
 70
     1
102
RTVSPropertyOp55
 70
     1
102
RTVSPropertyOp56
 70
     1
102
RTVSPropertyOp57
 70
     1
102
RTVSPost2010Prop28
280
     0
102
RTVSPost2010PropOp28
 70
     1
102
RTVSPost2010Prop29
280
     1
102
RTVSPost2010PropOp29
 70
     1
102
RTVSPost2010Prop30
280
     1
102
RTVSPost2010PropOp30
 70
     1
102
RTVSPost2010Prop31
280
     0
102
RTVSPost2010PropOp31
 70
     1
102
RTVSPost2010Prop32
280
     0
102
RTVSPost2010PropOp32
 70
     1
102
RTVSPost2010Prop33
280
     0
102
RTVSPost2010PropOp33
 70
     1
102
RTVSPost2010Prop34
280
     0
102
RTVSPost2010PropOp34
 70
     1
102
RTVSPost2010Prop35
280
     0
102
RTVSPost2010PropOp35
 70
     1
102
RTVSPost2010Prop36
280
     0
102
RTVSPost2010PropOp36
 70
     1
102
RTVSPost2010Prop37
 90
       50
102
RTVSPost2010PropOp37
 70
     1
102
RTVSPost2010Prop38
140
0.0
102
RTVSPost2010PropOp38
 70
     1
102
RTVSPost2010Prop39
140
1.0
102
RTVSPost2010PropOp39
 70
     1
102
RTVSPost2010Prop40
 90
        0
102
RTVSPost2010PropOp40
 70
     1
102
RTVSPost2010Prop41ColorIndex
 90
       18
102
RTVSPost2010Prop41ColorRGB
 90
        0
102
RTVSPost2010PropOp41
 70
     1
102
RTVSPost2010Prop42
 90
       50
102
RTVSPost2010PropOp42
 70
     1
102
RTVSPost2010Prop43
 90
        3
102
RTVSPost2010PropOp43
 70
     1
102
RTVSPost2010Prop44ColorIndex
 90
        5
102
RTVSPost2010Prop44ColorRGB
 90
      255
102
RTVSPost2010PropOp44
 70
     1
102
RTVSPost2010Prop45
280
     0
102
RTVSPost2010PropOp45
 70
     1
102
RTVSPost2010Prop46
 90
       50
102
RTVSPost2010PropOp46
 70
     1
102
RTVSPost2010Prop47
 90
       50
102
RTVSPost2010PropOp47
 70
     1
102
RTVSPost2010Prop48
 90
       50
102
RTVSPost2010PropOp48
 70
     1
102
RTVSPost2010Prop49
280
     0
102
RTVSPost2010PropOp49
 70
     1
102
RTVSPost2010Prop50
 90
       50
102
RTVSPost2010PropOp50
 70
     1
102
RTVSPost2010Prop51ColorIndex
 90
      256
102
RTVSPost2010Prop51ColorRGB
 90
-16777216
102
RTVSPost2010PropOp51
 70
     0
102
RTVSPost2010Prop52
140
1.0
102
RTVSPost2010PropOp52
 70
     0
102
RTVSPost2010Prop53
 90
        2
102
RTVSPost2010PropOp53
 70
     1
102
RTVSPost2010Prop54
  1
strokes_ogs.tif
102
RTVSPost2010PropOp54
 70
     1
102
RTVSPost2010Prop55
280
     0
102
RTVSPost2010PropOp55
 70
     1
102
RTVSPost2010Prop56
140
1.0
102
RTVSPost2010PropOp56
 70
     1
102
RTVSPost2010Prop57
140
1.0
102
RTVSPost2010PropOp57
 70
     1
  0
XRECORD
  5
20F
102
{ACAD_REACTORS
330
20E
102
}
330
20E
100
AcDbXrecord
280
     1
102
RTVSPropertyOp0
 70
     0
102
RTVSPropertyOp1
 70
     0
102
RTVSPropertyOp2
 70
     0
102
RTVSPropertyOp3
 70
     0
102
RTVSPropertyOp4
 70
     0
102
RTVSPropertyOp5
 70
     0
102
RTVSPropertyOp6
 70
     0
102
RTVSPropertyOp7
 70
     0
102
RTVSPropertyOp8
 70
     0
102
RTVSPropertyOp9
 70
     0
102
RTVSPropertyOp10
 70
     0
102
RTVSPropertyOp11
 70
     0
102
RTVSPropertyOp12
 70
     0
102
RTVSPropertyOp13
 70
     0
102
RTVSPropertyOp14
 70
     2
102
RTVSPropertyOp15
 70
     0
102
RTVSPropertyOp16
 70
     0
102
RTVSPropertyOp17
 70
     0
102
RTVSPropertyOp18
 70
     0
102
RTVSPropertyOp19
 70
     0
102
RTVSPropertyOp20
 70
     0
102
RTVSPropertyOp21
 70
     0
102
RTVSPropertyOp22
 70
     0
102
RTVSPropertyOp23
 70
     0
102
RTVSPropertyOp24
 70
     0
102
RTVSPropertyOp25
 70
     0
102
RTVSPropertyOp26
 70
     0
102
RTVSPropertyOp27
 70
     0
102
RTVSPropertyOp28
 70
     0
102
RTVSPropertyOp29
 70
     0
102
RTVSPropertyOp30
 70
     0
102
RTVSPropertyOp31
 70
     0
102
RTVSPropertyOp32
 70
     0
102
RTVSPropertyOp33
 70
     0
102
RTVSPropertyOp34
 70
     0
102
RTVSPropertyOp35
 70
     0
102
RTVSPropertyOp36
 70
     0
102
RTVSPropertyOp37
 70
     0
102
RTVSPropertyOp38
 70
     0
102
RTVSPropertyOp39
 70
     0
102
RTVSPropertyOp40
 70
     0
102
RTVSPropertyOp41
 70
     0
102
RTVSPropertyOp42
 70
     0
102
RTVSPropertyOp43
 70
     0
102
RTVSPropertyOp44
 70
     0
102
RTVSPropertyOp45
 70
     0
102
RTVSPropertyOp46
 70
     0
102
RTVSPropertyOp47
 70
     0
102
RTVSPropertyOp48
 70
     0
102
RTVSPropertyOp49
 70
     0
102
RTVSPropertyOp50
 70
     0
102
RTVSPropertyOp51
 70
     0
102
RTVSPropertyOp52
 70
     0
102
RTVSPropertyOp53
 70
     0
102
RTVSPropertyOp54
 70
     0
102
RTVSPropertyOp55
 70
     0
102
RTVSPropertyOp56
 70
     0
102
RTVSPropertyOp57
 70
     0
102
RTVSPost2010Prop28
280
     0
102
RTVSPost2010PropOp28
 70
     0
102
RTVSPost2010Prop29
280
     1
102
RTVSPost2010PropOp29
 70
     0
102
RTVSPost2010Prop30
280
     1
102
RTVSPost2010PropOp30
 70
     0
102
RTVSPost2010Prop31
280
     0
102
RTVSPost2010PropOp31
 70
     0
102
RTVSPost2010Prop32
280
     0
102
RTVSPost2010PropOp32
 70
     0
102
RTVSPost2010Prop33
280
     0
102
RTVSPost2010PropOp33
 70
     0
102
RTVSPost2010Prop34
280
     0
102
RTVSPost2010PropOp34
 70
     0
102
RTVSPost2010Prop35
280
     0
102
RTVSPost2010PropOp35
 70
     0
102
RTVSPost2010Prop36
280
     0
102
RTVSPost2010PropOp36
 70
     0
102
RTVSPost2010Prop37
 90
       50
102
RTVSPost2010PropOp37
 70
     0
102
RTVSPost2010Prop38
140
0.0
102
RTVSPost2010PropOp38
 70
     0
102
RTVSPost2010Prop39
140
1.0
102
RTVSPost2010PropOp39
 70
     0
102
RTVSPost2010Prop40
 90
        0
102
RTVSPost2010PropOp40
 70
     0
102
RTVSPost2010Prop41ColorIndex
 90
       18
102
RTVSPost2010Prop41ColorRGB
 90
        0
102
RTVSPost2010PropOp41
 70
     0
102
RTVSPost2010Prop42
 90
       50
102
RTVSPost2010PropOp42
 70
     0
102
RTVSPost2010Prop43
 90
        3
102
RTVSPost2010PropOp43
 70
     0
102
RTVSPost2010Prop44ColorIndex
 90
        5
102
RTVSPost2010Prop44ColorRGB
 90
      255
102
RTVSPost2010PropOp44
 70
     0
102
RTVSPost2010Prop45
280
     0
102
RTVSPost2010PropOp45
 70
     0
102
RTVSPost2010Prop46
 90
       50
102
RTVSPost2010PropOp46
 70
     0
102
RTVSPost2010Prop47
 90
       50
102
RTVSPost2010PropOp47
 70
     0
102
RTVSPost2010Prop48
 90
       50
102
RTVSPost2010PropOp48
 70
     0
102
RTVSPost2010Prop49
280
     0
102
RTVSPost2010PropOp49
 70
     0
102
RTVSPost2010Prop50
 90
       50
102
RTVSPost2010PropOp50
 70
     0
102
RTVSPost2010Prop51ColorIndex
 90
      256
102
RTVSPost2010Prop51ColorRGB
 90
-16777216
102
RTVSPost2010PropOp51
 70
     0
102
RTVSPost2010Prop52
140
1.0
102
RTVSPost2010PropOp52
 70
     0
102
RTVSPost2010Prop53
 90
        2
102
RTVSPost2010PropOp53
 70
     0
102
RTVSPost2010Prop54
  1
strokes_ogs.tif
102
RTVSPost2010PropOp54
 70
     0
102
RTVSPost2010Prop55
280
     0
102
RTVSPost2010PropOp55
 70
     0
102
RTVSPost2010Prop56
140
1.0
102
RTVSPost2010PropOp56
 70
     0
102
RTVSPost2010Prop57
140
1.0
102
RTVSPost2010PropOp57
 70
     0
  0
XRECORD
  5
209
102
{ACAD_REACTORS
330
208
102
}
330
208
100
AcDbXrecord
280
     1
102
RTVSPropertyOp0
 70
     1
102
RTVSPropertyOp1
 70
     1
102
RTVSPropertyOp2
 70
     1
102
RTVSPropertyOp3
 70
     1
102
RTVSPropertyOp4
 70
     1
102
RTVSPropertyOp5
 70
     1
102
RTVSPropertyOp6
 70
     1
102
RTVSPropertyOp7
 70
     1
102
RTVSPropertyOp8
 70
     1
102
RTVSPropertyOp9
 70
     1
102
RTVSPropertyOp10
 70
     1
102
RTVSPropertyOp11
 70
     1
102
RTVSPropertyOp12
 70
     1
102
RTVSPropertyOp13
 70
     1
102
RTVSPropertyOp14
 70
     1
102
RTVSPropertyOp15
 70
     1
102
RTVSPropertyOp16
 70
     1
102
RTVSPropertyOp17
 70
     1
102
RTVSPropertyOp18
 70
     1
102
RTVSPropertyOp19
 70
     1
102
RTVSPropertyOp20
 70
     1
102
RTVSPropertyOp21
 70
     1
102
RTVSPropertyOp22
 70
     1
102
RTVSPropertyOp23
 70
     1
102
RTVSPropertyOp24
 70
     1
102
RTVSPropertyOp25
 70
     1
102
RTVSPropertyOp26
 70
     1
102
RTVSPropertyOp27
 70
     1
102
RTVSPropertyOp28
 70
     1
102
RTVSPropertyOp29
 70
     1
102
RTVSPropertyOp30
 70
     1
102
RTVSPropertyOp31
 70
     1
102
RTVSPropertyOp32
 70
     1
102
RTVSPropertyOp33
 70
     1
102
RTVSPropertyOp34
 70
     1
102
RTVSPropertyOp35
 70
     1
102
RTVSPropertyOp36
 70
     1
102
RTVSPropertyOp37
 70
     1
102
RTVSPropertyOp38
 70
     1
102
RTVSPropertyOp39
 70
     1
102
RTVSPropertyOp40
 70
     1
102
RTVSPropertyOp41
 70
     1
102
RTVSPropertyOp42
 70
     1
102
RTVSPropertyOp43
 70
     1
102
RTVSPropertyOp44
 70
     1
102
RTVSPropertyOp45
 70
     1
102
RTVSPropertyOp46
 70
     1
102
RTVSPropertyOp47
 70
     1
102
RTVSPropertyOp48
 70
     1
102
RTVSPropertyOp49
 70
     1
102
RTVSPropertyOp50
 70
     1
102
RTVSPropertyOp51
 70
     0
102
RTVSPropertyOp52
 70
     0
102
RTVSPropertyOp53
 70
     1
102
RTVSPropertyOp54
 70
     1
102
RTVSPropertyOp55
 70
     1
102
RTVSPropertyOp56
 70
     1
102
RTVSPropertyOp57
 70
     1
102
RTVSPost2010Prop28
280
     0
102
RTVSPost2010PropOp28
 70
     1
102
RTVSPost2010Prop29
280
     1
102
RTVSPost2010PropOp29
 70
     1
102
RTVSPost2010Prop30
280
     1
102
RTVSPost2010PropOp30
 70
     1
102
RTVSPost2010Prop31
280
     0
102
RTVSPost2010PropOp31
 70
     1
102
RTVSPost2010Prop32
280
     0
102
RTVSPost2010PropOp32
 70
     1
102
RTVSPost2010Prop33
280
     0
102
RTVSPost2010PropOp33
 70
     1
102
RTVSPost2010Prop34
280
     0
102
RTVSPost2010PropOp34
 70
     1
102
RTVSPost2010Prop35
280
     0
102
RTVSPost2010PropOp35
 70
     1
102
RTVSPost2010Prop36
280
     0
102
RTVSPost2010PropOp36
 70
     1
102
RTVSPost2010Prop37
 90
       50
102
RTVSPost2010PropOp37
 70
     1
102
RTVSPost2010Prop38
140
0.0
102
RTVSPost2010PropOp38
 70
     1
102
RTVSPost2010Prop39
140
1.0
102
RTVSPost2010PropOp39
 70
     1
102
RTVSPost2010Prop40
 90
        0
102
RTVSPost2010PropOp40
 70
     1
102
RTVSPost2010Prop41ColorIndex
 90
       18
102
RTVSPost2010Prop41ColorRGB
 90
        0
102
RTVSPost2010PropOp41
 70
     1
102
RTVSPost2010Prop42
 90
       50
102
RTVSPost2010PropOp42
 70
     1
102
RTVSPost2010Prop43
 90
        3
102
RTVSPost2010PropOp43
 70
     1
102
RTVSPost2010Prop44ColorIndex
 90
        5
102
RTVSPost2010Prop44ColorRGB
 90
      255
102
RTVSPost2010PropOp44
 70
     1
102
RTVSPost2010Prop45
280
     0
102
RTVSPost2010PropOp45
 70
     1
102
RTVSPost2010Prop46
 90
       50
102
RTVSPost2010PropOp46
 70
     1
102
RTVSPost2010Prop47
 90
       50
102
RTVSPost2010PropOp47
 70
     1
102
RTVSPost2010Prop48
 90
       50
102
RTVSPost2010PropOp48
 70
     1
102
RTVSPost2010Prop49
280
     0
102
RTVSPost2010PropOp49
 70
     1
102
RTVSPost2010Prop50
 90
       50
102
RTVSPost2010PropOp50
 70
     1
102
RTVSPost2010Prop51ColorIndex
 90
      256
102
RTVSPost2010Prop51ColorRGB
 90
-16777216
102
RTVSPost2010PropOp51
 70
     0
102
RTVSPost2010Prop52
140
1.0
102
RTVSPost2010PropOp52
 70
     0
102
RTVSPost2010Prop53
 90
        2
102
RTVSPost2010PropOp53
 70
     1
102
RTVSPost2010Prop54
  1
strokes_ogs.tif
102
RTVSPost2010PropOp54
 70
     1
102
RTVSPost2010Prop55
280
     0
102
RTVSPost2010PropOp55
 70
     1
102
RTVSPost2010Prop56
140
1.0
102
RTVSPost2010PropOp56
 70
     1
102
RTVSPost2010Prop57
140
1.0
102
RTVSPost2010PropOp57
 70
     1
  0
XRECORD
  5
211
102
{ACAD_REACTORS
330
210
102
}
330
210
100
AcDbXrecord
280
     1
102
RTVSPropertyOp0
 70
     0
102
RTVSPropertyOp1
 70
     0
102
RTVSPropertyOp2
 70
     0
102
RTVSPropertyOp3
 70
     0
102
RTVSPropertyOp4
 70
     0
102
RTVSPropertyOp5
 70
     0
102
RTVSPropertyOp6
 70
     0
102
RTVSPropertyOp7
 70
     0
102
RTVSPropertyOp8
 70
     0
102
RTVSPropertyOp9
 70
     0
102
RTVSPropertyOp10
 70
     0
102
RTVSPropertyOp11
 70
     0
102
RTVSPropertyOp12
 70
     0
102
RTVSPropertyOp13
 70
     0
102
RTVSPropertyOp14
 70
     2
102
RTVSPropertyOp15
 70
     0
102
RTVSPropertyOp16
 70
     0
102
RTVSPropertyOp17
 70
     0
102
RTVSPropertyOp18
 70
     0
102
RTVSPropertyOp19
 70
     0
102
RTVSPropertyOp20
 70
     0
102
RTVSPropertyOp21
 70
     0
102
RTVSPropertyOp22
 70
     0
102
RTVSPropertyOp23
 70
     0
102
RTVSPropertyOp24
 70
     0
102
RTVSPropertyOp25
 70
     0
102
RTVSPropertyOp26
 70
     0
102
RTVSPropertyOp27
 70
     0
102
RTVSPropertyOp28
 70
     0
102
RTVSPropertyOp29
 70
     0
102
RTVSPropertyOp30
 70
     0
102
RTVSPropertyOp31
 70
     0
102
RTVSPropertyOp32
 70
     0
102
RTVSPropertyOp33
 70
     0
102
RTVSPropertyOp34
 70
     0
102
RTVSPropertyOp35
 70
     0
102
RTVSPropertyOp36
 70
     0
102
RTVSPropertyOp37
 70
     0
102
RTVSPropertyOp38
 70
     0
102
RTVSPropertyOp39
 70
     0
102
RTVSPropertyOp40
 70
     0
102
RTVSPropertyOp41
 70
     0
102
RTVSPropertyOp42
 70
     0
102
RTVSPropertyOp43
 70
     0
102
RTVSPropertyOp44
 70
     0
102
RTVSPropertyOp45
 70
     0
102
RTVSPropertyOp46
 70
     0
102
RTVSPropertyOp47
 70
     0
102
RTVSPropertyOp48
 70
     0
102
RTVSPropertyOp49
 70
     0
102
RTVSPropertyOp50
 70
     0
102
RTVSPropertyOp51
 70
     0
102
RTVSPropertyOp52
 70
     0
102
RTVSPropertyOp53
 70
     0
102
RTVSPropertyOp54
 70
     0
102
RTVSPropertyOp55
 70
     0
102
RTVSPropertyOp56
 70
     0
102
RTVSPropertyOp57
 70
     0
102
RTVSPost2010Prop28
280
     0
102
RTVSPost2010PropOp28
 70
     0
102
RTVSPost2010Prop29
280
     1
102
RTVSPost2010PropOp29
 70
     0
102
RTVSPost2010Prop30
280
     1
102
RTVSPost2010PropOp30
 70
     0
102
RTVSPost2010Prop31
280
     0
102
RTVSPost2010PropOp31
 70
     0
102
RTVSPost2010Prop32
280
     0
102
RTVSPost2010PropOp32
 70
     0
102
RTVSPost2010Prop33
280
     0
102
RTVSPost2010PropOp33
 70
     0
102
RTVSPost2010Prop34
280
     0
102
RTVSPost2010PropOp34
 70
     0
102
RTVSPost2010Prop35
280
     0
102
RTVSPost2010PropOp35
 70
     0
102
RTVSPost2010Prop36
280
     0
102
RTVSPost2010PropOp36
 70
     0
102
RTVSPost2010Prop37
 90
       50
102
RTVSPost2010PropOp37
 70
     0
102
RTVSPost2010Prop38
140
0.0
102
RTVSPost2010PropOp38
 70
     0
102
RTVSPost2010Prop39
140
1.0
102
RTVSPost2010PropOp39
 70
     0
102
RTVSPost2010Prop40
 90
        0
102
RTVSPost2010PropOp40
 70
     0
102
RTVSPost2010Prop41ColorIndex
 90
       18
102
RTVSPost2010Prop41ColorRGB
 90
        0
102
RTVSPost2010PropOp41
 70
     0
102
RTVSPost2010Prop42
 90
       50
102
RTVSPost2010PropOp42
 70
     0
102
RTVSPost2010Prop43
 90
        3
102
RTVSPost2010PropOp43
 70
     0
102
RTVSPost2010Prop44ColorIndex
 90
        5
102
RTVSPost2010Prop44ColorRGB
 90
      255
102
RTVSPost2010PropOp44
 70
     0
102
RTVSPost2010Prop45
280
     0
102
RTVSPost2010PropOp45
 70
     0
102
RTVSPost2010Prop46
 90
       50
102
RTVSPost2010PropOp46
 70
     0
102
RTVSPost2010Prop47
 90
       50
102
RTVSPost2010PropOp47
 70
     0
102
RTVSPost2010Prop48
 90
       50
102
RTVSPost2010PropOp48
 70
     0
102
RTVSPost2010Prop49
280
     0
102
RTVSPost2010PropOp49
 70
     0
102
RTVSPost2010Prop50
 90
       50
102
RTVSPost2010PropOp50
 70
     0
102
RTVSPost2010Prop51ColorIndex
 90
      256
102
RTVSPost2010Prop51ColorRGB
 90
-16777216
102
RTVSPost2010PropOp51
 70
     0
102
RTVSPost2010Prop52
140
1.0
102
RTVSPost2010PropOp52
 70
     0
102
RTVSPost2010Prop53
 90
        2
102
RTVSPost2010PropOp53
 70
     0
102
RTVSPost2010Prop54
  1
strokes_ogs.tif
102
RTVSPost2010PropOp54
 70
     0
102
RTVSPost2010Prop55
280
     0
102
RTVSPost2010PropOp55
 70
     0
102
RTVSPost2010Prop56
140
1.0
102
RTVSPost2010PropOp56
 70
     0
102
RTVSPost2010Prop57
140
1.0
102
RTVSPost2010PropOp57
 70
     0
  0
XRECORD
  5
1FF
102
{ACAD_REACTORS
330
1FE
102
}
330
1FE
100
AcDbXrecord
280
     1
102
RTVSPropertyOp0
 70
     1
102
RTVSPropertyOp1
 70
     1
102
RTVSPropertyOp2
 70
     1
102
RTVSPropertyOp3
 70
     1
102
RTVSPropertyOp4
 70
     1
102
RTVSPropertyOp5
 70
     1
102
RTVSPropertyOp6
 70
     1
102
RTVSPropertyOp7
 70
     1
102
RTVSPropertyOp8
 70
     1
102
RTVSPropertyOp9
 70
     1
102
RTVSPropertyOp10
 70
     1
102
RTVSPropertyOp11
 70
     1
102
RTVSPropertyOp12
 70
     1
102
RTVSPropertyOp13
 70
     1
102
RTVSPropertyOp14
 70
     1
102
RTVSPropertyOp15
 70
     1
102
RTVSPropertyOp16
 70
     1
102
RTVSPropertyOp17
 70
     1
102
RTVSPropertyOp18
 70
     1
102
RTVSPropertyOp19
 70
     1
102
RTVSPropertyOp20
 70
     1
102
RTVSPropertyOp21
 70
     1
102
RTVSPropertyOp22
 70
     1
102
RTVSPropertyOp23
 70
     1
102
RTVSPropertyOp24
 70
     1
102
RTVSPropertyOp25
 70
     1
102
RTVSPropertyOp26
 70
     1
102
RTVSPropertyOp27
 70
     1
102
RTVSPropertyOp28
 70
     1
102
RTVSPropertyOp29
 70
     1
102
RTVSPropertyOp30
 70
     1
102
RTVSPropertyOp31
 70
     1
102
RTVSPropertyOp32
 70
     1
102
RTVSPropertyOp33
 70
     1
102
RTVSPropertyOp34
 70
     1
102
RTVSPropertyOp35
 70
     1
102
RTVSPropertyOp36
 70
     1
102
RTVSPropertyOp37
 70
     1
102
RTVSPropertyOp38
 70
     1
102
RTVSPropertyOp39
 70
     1
102
RTVSPropertyOp40
 70
     1
102
RTVSPropertyOp41
 70
     1
102
RTVSPropertyOp42
 70
     1
102
RTVSPropertyOp43
 70
     1
102
RTVSPropertyOp44
 70
     1
102
RTVSPropertyOp45
 70
     1
102
RTVSPropertyOp46
 70
     1
102
RTVSPropertyOp47
 70
     1
102
RTVSPropertyOp48
 70
     1
102
RTVSPropertyOp49
 70
     1
102
RTVSPropertyOp50
 70
     1
102
RTVSPropertyOp51
 70
     0
102
RTVSPropertyOp52
 70
     0
102
RTVSPropertyOp53
 70
     1
102
RTVSPropertyOp54
 70
     1
102
RTVSPropertyOp55
 70
     1
102
RTVSPropertyOp56
 70
     1
102
RTVSPropertyOp57
 70
     1
102
RTVSPost2010Prop28
280
     0
102
RTVSPost2010PropOp28
 70
     1
102
RTVSPost2010Prop29
280
     1
102
RTVSPost2010PropOp29
 70
     1
102
RTVSPost2010Prop30
280
     1
102
RTVSPost2010PropOp30
 70
     1
102
RTVSPost2010Prop31
280
     0
102
RTVSPost2010PropOp31
 70
     1
102
RTVSPost2010Prop32
280
     0
102
RTVSPost2010PropOp32
 70
     1
102
RTVSPost2010Prop33
280
     0
102
RTVSPost2010PropOp33
 70
     1
102
RTVSPost2010Prop34
280
     0
102
RTVSPost2010PropOp34
 70
     1
102
RTVSPost2010Prop35
280
     0
102
RTVSPost2010PropOp35
 70
     1
102
RTVSPost2010Prop36
280
     0
102
RTVSPost2010PropOp36
 70
     1
102
RTVSPost2010Prop37
 90
       50
102
RTVSPost2010PropOp37
 70
     1
102
RTVSPost2010Prop38
140
0.0
102
RTVSPost2010PropOp38
 70
     1
102
RTVSPost2010Prop39
140
1.0
102
RTVSPost2010PropOp39
 70
     1
102
RTVSPost2010Prop40
 90
        0
102
RTVSPost2010PropOp40
 70
     1
102
RTVSPost2010Prop41ColorIndex
 90
       18
102
RTVSPost2010Prop41ColorRGB
 90
        0
102
RTVSPost2010PropOp41
 70
     1
102
RTVSPost2010Prop42
 90
       50
102
RTVSPost2010PropOp42
 70
     1
102
RTVSPost2010Prop43
 90
        3
102
RTVSPost2010PropOp43
 70
     1
102
RTVSPost2010Prop44ColorIndex
 90
        5
102
RTVSPost2010Prop44ColorRGB
 90
      255
102
RTVSPost2010PropOp44
 70
     1
102
RTVSPost2010Prop45
280
     0
102
RTVSPost2010PropOp45
 70
     1
102
RTVSPost2010Prop46
 90
       50
102
RTVSPost2010PropOp46
 70
     1
102
RTVSPost2010Prop47
 90
       50
102
RTVSPost2010PropOp47
 70
     1
102
RTVSPost2010Prop48
 90
       50
102
RTVSPost2010PropOp48
 70
     1
102
RTVSPost2010Prop49
280
     0
102
RTVSPost2010PropOp49
 70
     1
102
RTVSPost2010Prop50
 90
       50
102
RTVSPost2010PropOp50
 70
     1
102
RTVSPost2010Prop51ColorIndex
 90
      256
102
RTVSPost2010Prop51ColorRGB
 90
-16777216
102
RTVSPost2010PropOp51
 70
     0
102
RTVSPost2010Prop52
140
1.0
102
RTVSPost2010PropOp52
 70
     0
102
RTVSPost2010Prop53
 90
        2
102
RTVSPost2010PropOp53
 70
     1
102
RTVSPost2010Prop54
  1
strokes_ogs.tif
102
RTVSPost2010PropOp54
 70
     1
102
RTVSPost2010Prop55
280
     0
102
RTVSPost2010PropOp55
 70
     1
102
RTVSPost2010Prop56
140
1.0
102
RTVSPost2010PropOp56
 70
     1
102
RTVSPost2010Prop57
140
1.0
102
RTVSPost2010PropOp57
 70
     1
  0
XRECORD
  5
21D
102
{ACAD_REACTORS
330
21C
102
}
330
21C
100
AcDbXrecord
280
     1
102
RTVSPropertyOp0
 70
     1
102
RTVSPropertyOp1
 70
     1
102
RTVSPropertyOp2
 70
     1
102
RTVSPropertyOp3
 70
     1
102
RTVSPropertyOp4
 70
     1
102
RTVSPropertyOp5
 70
     1
102
RTVSPropertyOp6
 70
     1
102
RTVSPropertyOp7
 70
     1
102
RTVSPropertyOp8
 70
     1
102
RTVSPropertyOp9
 70
     1
102
RTVSPropertyOp10
 70
     1
102
RTVSPropertyOp11
 70
     1
102
RTVSPropertyOp12
 70
     1
102
RTVSPropertyOp13
 70
     1
102
RTVSPropertyOp14
 70
     1
102
RTVSPropertyOp15
 70
     1
102
RTVSPropertyOp16
 70
     1
102
RTVSPropertyOp17
 70
     1
102
RTVSPropertyOp18
 70
     1
102
RTVSPropertyOp19
 70
     1
102
RTVSPropertyOp20
 70
     1
102
RTVSPropertyOp21
 70
     1
102
RTVSPropertyOp22
 70
     1
102
RTVSPropertyOp23
 70
     1
102
RTVSPropertyOp24
 70
     1
102
RTVSPropertyOp25
 70
     1
102
RTVSPropertyOp26
 70
     1
102
RTVSPropertyOp27
 70
     1
102
RTVSPropertyOp28
 70
     1
102
RTVSPropertyOp29
 70
     1
102
RTVSPropertyOp30
 70
     1
102
RTVSPropertyOp31
 70
     1
102
RTVSPropertyOp32
 70
     1
102
RTVSPropertyOp33
 70
     1
102
RTVSPropertyOp34
 70
     1
102
RTVSPropertyOp35
 70
     1
102
RTVSPropertyOp36
 70
     1
102
RTVSPropertyOp37
 70
     1
102
RTVSPropertyOp38
 70
     1
102
RTVSPropertyOp39
 70
     1
102
RTVSPropertyOp40
 70
     1
102
RTVSPropertyOp41
 70
     1
102
RTVSPropertyOp42
 70
     1
102
RTVSPropertyOp43
 70
     1
102
RTVSPropertyOp44
 70
     1
102
RTVSPropertyOp45
 70
     1
102
RTVSPropertyOp46
 70
     1
102
RTVSPropertyOp47
 70
     1
102
RTVSPropertyOp48
 70
     1
102
RTVSPropertyOp49
 70
     1
102
RTVSPropertyOp50
 70
     1
102
RTVSPropertyOp51
 70
     0
102
RTVSPropertyOp52
 70
     0
102
RTVSPropertyOp53
 70
     1
102
RTVSPropertyOp54
 70
     1
102
RTVSPropertyOp55
 70
     1
102
RTVSPropertyOp56
 70
     1
102
RTVSPropertyOp57
 70
     1
102
RTVSPost2010Prop28
280
     0
102
RTVSPost2010PropOp28
 70
     1
102
RTVSPost2010Prop29
280
     1
102
RTVSPost2010PropOp29
 70
     1
102
RTVSPost2010Prop30
280
     1
102
RTVSPost2010PropOp30
 70
     1
102
RTVSPost2010Prop31
280
     0
102
RTVSPost2010PropOp31
 70
     1
102
RTVSPost2010Prop32
280
     0
102
RTVSPost2010PropOp32
 70
     1
102
RTVSPost2010Prop33
280
     0
102
RTVSPost2010PropOp33
 70
     1
102
RTVSPost2010Prop34
280
     0
102
RTVSPost2010PropOp34
 70
     1
102
RTVSPost2010Prop35
280
     0
102
RTVSPost2010PropOp35
 70
     1
102
RTVSPost2010Prop36
280
     0
102
RTVSPost2010PropOp36
 70
     1
102
RTVSPost2010Prop37
 90
       50
102
RTVSPost2010PropOp37
 70
     1
102
RTVSPost2010Prop38
140
0.0
102
RTVSPost2010PropOp38
 70
     1
102
RTVSPost2010Prop39
140
1.0
102
RTVSPost2010PropOp39
 70
     1
102
RTVSPost2010Prop40
 90
        0
102
RTVSPost2010PropOp40
 70
     1
102
RTVSPost2010Prop41ColorIndex
 90
       18
102
RTVSPost2010Prop41ColorRGB
 90
        0
102
RTVSPost2010PropOp41
 70
     1
102
RTVSPost2010Prop42
 90
       50
102
RTVSPost2010PropOp42
 70
     1
102
RTVSPost2010Prop43
 90
        3
102
RTVSPost2010PropOp43
 70
     1
102
RTVSPost2010Prop44ColorIndex
 90
        5
102
RTVSPost2010Prop44ColorRGB
 90
      255
102
RTVSPost2010PropOp44
 70
     1
102
RTVSPost2010Prop45
280
     0
102
RTVSPost2010PropOp45
 70
     1
102
RTVSPost2010Prop46
 90
       50
102
RTVSPost2010PropOp46
 70
     1
102
RTVSPost2010Prop47
 90
       50
102
RTVSPost2010PropOp47
 70
     1
102
RTVSPost2010Prop48
 90
       50
102
RTVSPost2010PropOp48
 70
     1
102
RTVSPost2010Prop49
280
     0
102
RTVSPost2010PropOp49
 70
     1
102
RTVSPost2010Prop50
 90
       50
102
RTVSPost2010PropOp50
 70
     1
102
RTVSPost2010Prop51ColorIndex
 90
      256
102
RTVSPost2010Prop51ColorRGB
 90
-16777216
102
RTVSPost2010PropOp51
 70
     0
102
RTVSPost2010Prop52
140
1.0
102
RTVSPost2010PropOp52
 70
     0
102
RTVSPost2010Prop53
 90
        2
102
RTVSPost2010PropOp53
 70
     1
102
RTVSPost2010Prop54
  1
strokes_ogs.tif
102
RTVSPost2010PropOp54
 70
     1
102
RTVSPost2010Prop55
280
     0
102
RTVSPost2010PropOp55
 70
     1
102
RTVSPost2010Prop56
140
1.0
102
RTVSPost2010PropOp56
 70
     1
102
RTVSPost2010Prop57
140
1.0
102
RTVSPost2010PropOp57
 70
     1
  0
XRECORD
  5
21B
102
{ACAD_REACTORS
330
21A
102
}
330
21A
100
AcDbXrecord
280
     1
102
RTVSPropertyOp0
 70
     1
102
RTVSPropertyOp1
 70
     1
102
RTVSPropertyOp2
 70
     1
102
RTVSPropertyOp3
 70
     1
102
RTVSPropertyOp4
 70
     1
102
RTVSPropertyOp5
 70
     1
102
RTVSPropertyOp6
 70
     1
102
RTVSPropertyOp7
 70
     1
102
RTVSPropertyOp8
 70
     1
102
RTVSPropertyOp9
 70
     1
102
RTVSPropertyOp10
 70
     1
102
RTVSPropertyOp11
 70
     1
102
RTVSPropertyOp12
 70
     1
102
RTVSPropertyOp13
 70
     1
102
RTVSPropertyOp14
 70
     1
102
RTVSPropertyOp15
 70
     1
102
RTVSPropertyOp16
 70
     1
102
RTVSPropertyOp17
 70
     1
102
RTVSPropertyOp18
 70
     1
102
RTVSPropertyOp19
 70
     1
102
RTVSPropertyOp20
 70
     1
102
RTVSPropertyOp21
 70
     1
102
RTVSPropertyOp22
 70
     1
102
RTVSPropertyOp23
 70
     1
102
RTVSPropertyOp24
 70
     1
102
RTVSPropertyOp25
 70
     1
102
RTVSPropertyOp26
 70
     1
102
RTVSPropertyOp27
 70
     1
102
RTVSPropertyOp28
 70
     1
102
RTVSPropertyOp29
 70
     1
102
RTVSPropertyOp30
 70
     1
102
RTVSPropertyOp31
 70
     1
102
RTVSPropertyOp32
 70
     1
102
RTVSPropertyOp33
 70
     1
102
RTVSPropertyOp34
 70
     1
102
RTVSPropertyOp35
 70
     1
102
RTVSPropertyOp36
 70
     1
102
RTVSPropertyOp37
 70
     1
102
RTVSPropertyOp38
 70
     1
102
RTVSPropertyOp39
 70
     1
102
RTVSPropertyOp40
 70
     1
102
RTVSPropertyOp41
 70
     1
102
RTVSPropertyOp42
 70
     1
102
RTVSPropertyOp43
 70
     1
102
RTVSPropertyOp44
 70
     1
102
RTVSPropertyOp45
 70
     1
102
RTVSPropertyOp46
 70
     1
102
RTVSPropertyOp47
 70
     1
102
RTVSPropertyOp48
 70
     1
102
RTVSPropertyOp49
 70
     1
102
RTVSPropertyOp50
 70
     1
102
RTVSPropertyOp51
 70
     0
102
RTVSPropertyOp52
 70
     0
102
RTVSPropertyOp53
 70
     1
102
RTVSPropertyOp54
 70
     1
102
RTVSPropertyOp55
 70
     1
102
RTVSPropertyOp56
 70
     1
102
RTVSPropertyOp57
 70
     1
102
RTVSPost2010Prop28
280
     0
102
RTVSPost2010PropOp28
 70
     1
102
RTVSPost2010Prop29
280
     1
102
RTVSPost2010PropOp29
 70
     1
102
RTVSPost2010Prop30
280
     1
102
RTVSPost2010PropOp30
 70
     1
102
RTVSPost2010Prop31
280
     0
102
RTVSPost2010PropOp31
 70
     1
102
RTVSPost2010Prop32
280
     0
102
RTVSPost2010PropOp32
 70
     1
102
RTVSPost2010Prop33
280
     0
102
RTVSPost2010PropOp33
 70
     1
102
RTVSPost2010Prop34
280
     0
102
RTVSPost2010PropOp34
 70
     1
102
RTVSPost2010Prop35
280
     0
102
RTVSPost2010PropOp35
 70
     1
102
RTVSPost2010Prop36
280
     0
102
RTVSPost2010PropOp36
 70
     1
102
RTVSPost2010Prop37
 90
       50
102
RTVSPost2010PropOp37
 70
     1
102
RTVSPost2010Prop38
140
0.0
102
RTVSPost2010PropOp38
 70
     1
102
RTVSPost2010Prop39
140
1.0
102
RTVSPost2010PropOp39
 70
     1
102
RTVSPost2010Prop40
 90
        0
102
RTVSPost2010PropOp40
 70
     1
102
RTVSPost2010Prop41ColorIndex
 90
       18
102
RTVSPost2010Prop41ColorRGB
 90
        0
102
RTVSPost2010PropOp41
 70
     1
102
RTVSPost2010Prop42
 90
       50
102
RTVSPost2010PropOp42
 70
     1
102
RTVSPost2010Prop43
 90
        3
102
RTVSPost2010PropOp43
 70
     1
102
RTVSPost2010Prop44ColorIndex
 90
        5
102
RTVSPost2010Prop44ColorRGB
 90
      255
102
RTVSPost2010PropOp44
 70
     1
102
RTVSPost2010Prop45
280
     0
102
RTVSPost2010PropOp45
 70
     1
102
RTVSPost2010Prop46
 90
       50
102
RTVSPost2010PropOp46
 70
     1
102
RTVSPost2010Prop47
 90
       50
102
RTVSPost2010PropOp47
 70
     1
102
RTVSPost2010Prop48
 90
       50
102
RTVSPost2010PropOp48
 70
     1
102
RTVSPost2010Prop49
280
     0
102
RTVSPost2010PropOp49
 70
     1
102
RTVSPost2010Prop50
 90
       50
102
RTVSPost2010PropOp50
 70
     1
102
RTVSPost2010Prop51ColorIndex
 90
      256
102
RTVSPost2010Prop51ColorRGB
 90
-16777216
102
RTVSPost2010PropOp51
 70
     0
102
RTVSPost2010Prop52
140
1.0
102
RTVSPost2010PropOp52
 70
     0
102
RTVSPost2010Prop53
 90
        2
102
RTVSPost2010PropOp53
 70
     1
102
RTVSPost2010Prop54
  1
strokes_ogs.tif
102
RTVSPost2010PropOp54
 70
     1
102
RTVSPost2010Prop55
280
     0
102
RTVSPost2010PropOp55
 70
     1
102
RTVSPost2010Prop56
140
1.0
102
RTVSPost2010PropOp56
 70
     1
102
RTVSPost2010Prop57
140
1.0
102
RTVSPost2010PropOp57
 70
     1
  0
XRECORD
  5
215
102
{ACAD_REACTORS
330
214
102
}
330
214
100
AcDbXrecord
280
     1
102
RTVSPropertyOp0
 70
     1
102
RTVSPropertyOp1
 70
     1
102
RTVSPropertyOp2
 70
     1
102
RTVSPropertyOp3
 70
     1
102
RTVSPropertyOp4
 70
     1
102
RTVSPropertyOp5
 70
     1
102
RTVSPropertyOp6
 70
     1
102
RTVSPropertyOp7
 70
     1
102
RTVSPropertyOp8
 70
     1
102
RTVSPropertyOp9
 70
     1
102
RTVSPropertyOp10
 70
     1
102
RTVSPropertyOp11
 70
     1
102
RTVSPropertyOp12
 70
     1
102
RTVSPropertyOp13
 70
     1
102
RTVSPropertyOp14
 70
     1
102
RTVSPropertyOp15
 70
     1
102
RTVSPropertyOp16
 70
     1
102
RTVSPropertyOp17
 70
     1
102
RTVSPropertyOp18
 70
     1
102
RTVSPropertyOp19
 70
     1
102
RTVSPropertyOp20
 70
     1
102
RTVSPropertyOp21
 70
     1
102
RTVSPropertyOp22
 70
     1
102
RTVSPropertyOp23
 70
     1
102
RTVSPropertyOp24
 70
     1
102
RTVSPropertyOp25
 70
     1
102
RTVSPropertyOp26
 70
     1
102
RTVSPropertyOp27
 70
     1
102
RTVSPropertyOp28
 70
     1
102
RTVSPropertyOp29
 70
     1
102
RTVSPropertyOp30
 70
     1
102
RTVSPropertyOp31
 70
     1
102
RTVSPropertyOp32
 70
     1
102
RTVSPropertyOp33
 70
     1
102
RTVSPropertyOp34
 70
     1
102
RTVSPropertyOp35
 70
     1
102
RTVSPropertyOp36
 70
     1
102
RTVSPropertyOp37
 70
     1
102
RTVSPropertyOp38
 70
     1
102
RTVSPropertyOp39
 70
     1
102
RTVSPropertyOp40
 70
     1
102
RTVSPropertyOp41
 70
     1
102
RTVSPropertyOp42
 70
     1
102
RTVSPropertyOp43
 70
     1
102
RTVSPropertyOp44
 70
     1
102
RTVSPropertyOp45
 70
     1
102
RTVSPropertyOp46
 70
     1
102
RTVSPropertyOp47
 70
     1
102
RTVSPropertyOp48
 70
     1
102
RTVSPropertyOp49
 70
     1
102
RTVSPropertyOp50
 70
     1
102
RTVSPropertyOp51
 70
     0
102
RTVSPropertyOp52
 70
     0
102
RTVSPropertyOp53
 70
     1
102
RTVSPropertyOp54
 70
     1
102
RTVSPropertyOp55
 70
     1
102
RTVSPropertyOp56
 70
     1
102
RTVSPropertyOp57
 70
     1
102
RTVSPost2010Prop28
280
     0
102
RTVSPost2010PropOp28
 70
     1
102
RTVSPost2010Prop29
280
     1
102
RTVSPost2010PropOp29
 70
     1
102
RTVSPost2010Prop30
280
     1
102
RTVSPost2010PropOp30
 70
     1
102
RTVSPost2010Prop31
280
     0
102
RTVSPost2010PropOp31
 70
     1
102
RTVSPost2010Prop32
280
     0
102
RTVSPost2010PropOp32
 70
     1
102
RTVSPost2010Prop33
280
     0
102
RTVSPost2010PropOp33
 70
     1
102
RTVSPost2010Prop34
280
     0
102
RTVSPost2010PropOp34
 70
     1
102
RTVSPost2010Prop35
280
     0
102
RTVSPost2010PropOp35
 70
     1
102
RTVSPost2010Prop36
280
     0
102
RTVSPost2010PropOp36
 70
     1
102
RTVSPost2010Prop37
 90
       50
102
RTVSPost2010PropOp37
 70
     1
102
RTVSPost2010Prop38
140
0.0
102
RTVSPost2010PropOp38
 70
     1
102
RTVSPost2010Prop39
140
1.0
102
RTVSPost2010PropOp39
 70
     1
102
RTVSPost2010Prop40
 90
        0
102
RTVSPost2010PropOp40
 70
     1
102
RTVSPost2010Prop41ColorIndex
 90
       18
102
RTVSPost2010Prop41ColorRGB
 90
        0
102
RTVSPost2010PropOp41
 70
     1
102
RTVSPost2010Prop42
 90
       50
102
RTVSPost2010PropOp42
 70
     1
102
RTVSPost2010Prop43
 90
        3
102
RTVSPost2010PropOp43
 70
     1
102
RTVSPost2010Prop44ColorIndex
 90
        5
102
RTVSPost2010Prop44ColorRGB
 90
      255
102
RTVSPost2010PropOp44
 70
     1
102
RTVSPost2010Prop45
280
     0
102
RTVSPost2010PropOp45
 70
     1
102
RTVSPost2010Prop46
 90
       50
102
RTVSPost2010PropOp46
 70
     1
102
RTVSPost2010Prop47
 90
       50
102
RTVSPost2010PropOp47
 70
     1
102
RTVSPost2010Prop48
 90
       50
102
RTVSPost2010PropOp48
 70
     1
102
RTVSPost2010Prop49
280
     0
102
RTVSPost2010PropOp49
 70
     1
102
RTVSPost2010Prop50
 90
       50
102
RTVSPost2010PropOp50
 70
     1
102
RTVSPost2010Prop51ColorIndex
 90
      256
102
RTVSPost2010Prop51ColorRGB
 90
-16777216
102
RTVSPost2010PropOp51
 70
     0
102
RTVSPost2010Prop52
140
1.0
102
RTVSPost2010PropOp52
 70
     0
102
RTVSPost2010Prop53
 90
        2
102
RTVSPost2010PropOp53
 70
     1
102
RTVSPost2010Prop54
  1
strokes_ogs.tif
102
RTVSPost2010PropOp54
 70
     1
102
RTVSPost2010Prop55
280
     0
102
RTVSPost2010PropOp55
 70
     1
102
RTVSPost2010Prop56
140
1.0
102
RTVSPost2010PropOp56
 70
     1
102
RTVSPost2010Prop57
140
1.0
102
RTVSPost2010PropOp57
 70
     1
  0
XRECORD
  5
217
102
{ACAD_REACTORS
330
216
102
}
330
216
100
AcDbXrecord
280
     1
102
RTVSPropertyOp0
 70
     1
102
RTVSPropertyOp1
 70
     1
102
RTVSPropertyOp2
 70
     1
102
RTVSPropertyOp3
 70
     1
102
RTVSPropertyOp4
 70
     1
102
RTVSPropertyOp5
 70
     1
102
RTVSPropertyOp6
 70
     1
102
RTVSPropertyOp7
 70
     1
102
RTVSPropertyOp8
 70
     1
102
RTVSPropertyOp9
 70
     1
102
RTVSPropertyOp10
 70
     1
102
RTVSPropertyOp11
 70
     1
102
RTVSPropertyOp12
 70
     1
102
RTVSPropertyOp13
 70
     1
102
RTVSPropertyOp14
 70
     1
102
RTVSPropertyOp15
 70
     1
102
RTVSPropertyOp16
 70
     1
102
RTVSPropertyOp17
 70
     1
102
RTVSPropertyOp18
 70
     1
102
RTVSPropertyOp19
 70
     1
102
RTVSPropertyOp20
 70
     1
102
RTVSPropertyOp21
 70
     1
102
RTVSPropertyOp22
 70
     1
102
RTVSPropertyOp23
 70
     1
102
RTVSPropertyOp24
 70
     1
102
RTVSPropertyOp25
 70
     1
102
RTVSPropertyOp26
 70
     1
102
RTVSPropertyOp27
 70
     1
102
RTVSPropertyOp28
 70
     1
102
RTVSPropertyOp29
 70
     1
102
RTVSPropertyOp30
 70
     1
102
RTVSPropertyOp31
 70
     1
102
RTVSPropertyOp32
 70
     1
102
RTVSPropertyOp33
 70
     1
102
RTVSPropertyOp34
 70
     1
102
RTVSPropertyOp35
 70
     1
102
RTVSPropertyOp36
 70
     1
102
RTVSPropertyOp37
 70
     1
102
RTVSPropertyOp38
 70
     1
102
RTVSPropertyOp39
 70
     1
102
RTVSPropertyOp40
 70
     1
102
RTVSPropertyOp41
 70
     1
102
RTVSPropertyOp42
 70
     1
102
RTVSPropertyOp43
 70
     1
102
RTVSPropertyOp44
 70
     1
102
RTVSPropertyOp45
 70
     1
102
RTVSPropertyOp46
 70
     1
102
RTVSPropertyOp47
 70
     1
102
RTVSPropertyOp48
 70
     1
102
RTVSPropertyOp49
 70
     1
102
RTVSPropertyOp50
 70
     1
102
RTVSPropertyOp51
 70
     0
102
RTVSPropertyOp52
 70
     0
102
RTVSPropertyOp53
 70
     1
102
RTVSPropertyOp54
 70
     1
102
RTVSPropertyOp55
 70
     1
102
RTVSPropertyOp56
 70
     1
102
RTVSPropertyOp57
 70
     1
102
RTVSPost2010Prop28
280
     0
102
RTVSPost2010PropOp28
 70
     1
102
RTVSPost2010Prop29
280
     1
102
RTVSPost2010PropOp29
 70
     1
102
RTVSPost2010Prop30
280
     1
102
RTVSPost2010PropOp30
 70
     1
102
RTVSPost2010Prop31
280
     0
102
RTVSPost2010PropOp31
 70
     1
102
RTVSPost2010Prop32
280
     0
102
RTVSPost2010PropOp32
 70
     1
102
RTVSPost2010Prop33
280
     0
102
RTVSPost2010PropOp33
 70
     1
102
RTVSPost2010Prop34
280
     0
102
RTVSPost2010PropOp34
 70
     1
102
RTVSPost2010Prop35
280
     0
102
RTVSPost2010PropOp35
 70
     1
102
RTVSPost2010Prop36
280
     0
102
RTVSPost2010PropOp36
 70
     1
102
RTVSPost2010Prop37
 90
       50
102
RTVSPost2010PropOp37
 70
     1
102
RTVSPost2010Prop38
140
0.0
102
RTVSPost2010PropOp38
 70
     1
102
RTVSPost2010Prop39
140
1.0
102
RTVSPost2010PropOp39
 70
     1
102
RTVSPost2010Prop40
 90
        0
102
RTVSPost2010PropOp40
 70
     1
102
RTVSPost2010Prop41ColorIndex
 90
       18
102
RTVSPost2010Prop41ColorRGB
 90
        0
102
RTVSPost2010PropOp41
 70
     1
102
RTVSPost2010Prop42
 90
       50
102
RTVSPost2010PropOp42
 70
     1
102
RTVSPost2010Prop43
 90
        3
102
RTVSPost2010PropOp43
 70
     1
102
RTVSPost2010Prop44ColorIndex
 90
        5
102
RTVSPost2010Prop44ColorRGB
 90
      255
102
RTVSPost2010PropOp44
 70
     1
102
RTVSPost2010Prop45
280
     0
102
RTVSPost2010PropOp45
 70
     1
102
RTVSPost2010Prop46
 90
       50
102
RTVSPost2010PropOp46
 70
     1
102
RTVSPost2010Prop47
 90
       50
102
RTVSPost2010PropOp47
 70
     1
102
RTVSPost2010Prop48
 90
       50
102
RTVSPost2010PropOp48
 70
     1
102
RTVSPost2010Prop49
280
     0
102
RTVSPost2010PropOp49
 70
     1
102
RTVSPost2010Prop50
 90
       50
102
RTVSPost2010PropOp50
 70
     1
102
RTVSPost2010Prop51ColorIndex
 90
      256
102
RTVSPost2010Prop51ColorRGB
 90
-16777216
102
RTVSPost2010PropOp51
 70
     0
102
RTVSPost2010Prop52
140
1.0
102
RTVSPost2010PropOp52
 70
     0
102
RTVSPost2010Prop53
 90
        2
102
RTVSPost2010PropOp53
 70
     1
102
RTVSPost2010Prop54
  1
strokes_ogs.tif
102
RTVSPost2010PropOp54
 70
     1
102
RTVSPost2010Prop55
280
     0
102
RTVSPost2010PropOp55
 70
     1
102
RTVSPost2010Prop56
140
1.0
102
RTVSPost2010PropOp56
 70
     1
102
RTVSPost2010Prop57
140
1.0
102
RTVSPost2010PropOp57
 70
     1
  0
XRECORD
  5
207
102
{ACAD_REACTORS
330
206
102
}
330
206
100
AcDbXrecord
280
     1
102
RTVSPropertyOp0
 70
     1
102
RTVSPropertyOp1
 70
     1
102
RTVSPropertyOp2
 70
     1
102
RTVSPropertyOp3
 70
     1
102
RTVSPropertyOp4
 70
     1
102
RTVSPropertyOp5
 70
     1
102
RTVSPropertyOp6
 70
     1
102
RTVSPropertyOp7
 70
     1
102
RTVSPropertyOp8
 70
     1
102
RTVSPropertyOp9
 70
     1
102
RTVSPropertyOp10
 70
     1
102
RTVSPropertyOp11
 70
     1
102
RTVSPropertyOp12
 70
     1
102
RTVSPropertyOp13
 70
     1
102
RTVSPropertyOp14
 70
     1
102
RTVSPropertyOp15
 70
     1
102
RTVSPropertyOp16
 70
     1
102
RTVSPropertyOp17
 70
     1
102
RTVSPropertyOp18
 70
     1
102
RTVSPropertyOp19
 70
     1
102
RTVSPropertyOp20
 70
     1
102
RTVSPropertyOp21
 70
     1
102
RTVSPropertyOp22
 70
     1
102
RTVSPropertyOp23
 70
     1
102
RTVSPropertyOp24
 70
     1
102
RTVSPropertyOp25
 70
     1
102
RTVSPropertyOp26
 70
     1
102
RTVSPropertyOp27
 70
     1
102
RTVSPropertyOp28
 70
     1
102
RTVSPropertyOp29
 70
     1
102
RTVSPropertyOp30
 70
     1
102
RTVSPropertyOp31
 70
     1
102
RTVSPropertyOp32
 70
     1
102
RTVSPropertyOp33
 70
     1
102
RTVSPropertyOp34
 70
     1
102
RTVSPropertyOp35
 70
     1
102
RTVSPropertyOp36
 70
     1
102
RTVSPropertyOp37
 70
     1
102
RTVSPropertyOp38
 70
     1
102
RTVSPropertyOp39
 70
     1
102
RTVSPropertyOp40
 70
     1
102
RTVSPropertyOp41
 70
     1
102
RTVSPropertyOp42
 70
     1
102
RTVSPropertyOp43
 70
     1
102
RTVSPropertyOp44
 70
     1
102
RTVSPropertyOp45
 70
     1
102
RTVSPropertyOp46
 70
     1
102
RTVSPropertyOp47
 70
     1
102
RTVSPropertyOp48
 70
     1
102
RTVSPropertyOp49
 70
     1
102
RTVSPropertyOp50
 70
     1
102
RTVSPropertyOp51
 70
     0
102
RTVSPropertyOp52
 70
     0
102
RTVSPropertyOp53
 70
     1
102
RTVSPropertyOp54
 70
     1
102
RTVSPropertyOp55
 70
     1
102
RTVSPropertyOp56
 70
     1
102
RTVSPropertyOp57
 70
     1
102
RTVSPost2010Prop28
280
     0
102
RTVSPost2010PropOp28
 70
     1
102
RTVSPost2010Prop29
280
     1
102
RTVSPost2010PropOp29
 70
     1
102
RTVSPost2010Prop30
280
     1
102
RTVSPost2010PropOp30
 70
     1
102
RTVSPost2010Prop31
280
     0
102
RTVSPost2010PropOp31
 70
     1
102
RTVSPost2010Prop32
280
     0
102
RTVSPost2010PropOp32
 70
     1
102
RTVSPost2010Prop33
280
     0
102
RTVSPost2010PropOp33
 70
     1
102
RTVSPost2010Prop34
280
     0
102
RTVSPost2010PropOp34
 70
     1
102
RTVSPost2010Prop35
280
     0
102
RTVSPost2010PropOp35
 70
     1
102
RTVSPost2010Prop36
280
     0
102
RTVSPost2010PropOp36
 70
     1
102
RTVSPost2010Prop37
 90
       50
102
RTVSPost2010PropOp37
 70
     1
102
RTVSPost2010Prop38
140
0.0
102
RTVSPost2010PropOp38
 70
     1
102
RTVSPost2010Prop39
140
1.0
102
RTVSPost2010PropOp39
 70
     1
102
RTVSPost2010Prop40
 90
        0
102
RTVSPost2010PropOp40
 70
     1
102
RTVSPost2010Prop41ColorIndex
 90
       18
102
RTVSPost2010Prop41ColorRGB
 90
        0
102
RTVSPost2010PropOp41
 70
     1
102
RTVSPost2010Prop42
 90
       50
102
RTVSPost2010PropOp42
 70
     1
102
RTVSPost2010Prop43
 90
        3
102
RTVSPost2010PropOp43
 70
     1
102
RTVSPost2010Prop44ColorIndex
 90
        5
102
RTVSPost2010Prop44ColorRGB
 90
      255
102
RTVSPost2010PropOp44
 70
     1
102
RTVSPost2010Prop45
280
     0
102
RTVSPost2010PropOp45
 70
     1
102
RTVSPost2010Prop46
 90
       50
102
RTVSPost2010PropOp46
 70
     1
102
RTVSPost2010Prop47
 90
       50
102
RTVSPost2010PropOp47
 70
     1
102
RTVSPost2010Prop48
 90
       50
102
RTVSPost2010PropOp48
 70
     1
102
RTVSPost2010Prop49
280
     0
102
RTVSPost2010PropOp49
 70
     1
102
RTVSPost2010Prop50
 90
       50
102
RTVSPost2010PropOp50
 70
     1
102
RTVSPost2010Prop51ColorIndex
 90
      256
102
RTVSPost2010Prop51ColorRGB
 90
-16777216
102
RTVSPost2010PropOp51
 70
     0
102
RTVSPost2010Prop52
140
1.0
102
RTVSPost2010PropOp52
 70
     0
102
RTVSPost2010Prop53
 90
        2
102
RTVSPost2010PropOp53
 70
     1
102
RTVSPost2010Prop54
  1
strokes_ogs.tif
102
RTVSPost2010PropOp54
 70
     1
102
RTVSPost2010Prop55
280
     0
102
RTVSPost2010PropOp55
 70
     1
102
RTVSPost2010Prop56
140
1.0
102
RTVSPost2010PropOp56
 70
     1
102
RTVSPost2010Prop57
140
1.0
102
RTVSPost2010PropOp57
 70
     1
  0
XRECORD
  5
1F9
102
{ACAD_REACTORS
330
1F8
102
}
330
1F8
100
AcDbXrecord
280
     1
102
RTVSPropertyOp0
 70
     1
102
RTVSPropertyOp1
 70
     1
102
RTVSPropertyOp2
 70
     1
102
RTVSPropertyOp3
 70
     1
102
RTVSPropertyOp4
 70
     1
102
RTVSPropertyOp5
 70
     1
102
RTVSPropertyOp6
 70
     1
102
RTVSPropertyOp7
 70
     1
102
RTVSPropertyOp8
 70
     1
102
RTVSPropertyOp9
 70
     1
102
RTVSPropertyOp10
 70
     1
102
RTVSPropertyOp11
 70
     1
102
RTVSPropertyOp12
 70
     1
102
RTVSPropertyOp13
 70
     1
102
RTVSPropertyOp14
 70
     1
102
RTVSPropertyOp15
 70
     1
102
RTVSPropertyOp16
 70
     1
102
RTVSPropertyOp17
 70
     1
102
RTVSPropertyOp18
 70
     1
102
RTVSPropertyOp19
 70
     1
102
RTVSPropertyOp20
 70
     1
102
RTVSPropertyOp21
 70
     1
102
RTVSPropertyOp22
 70
     1
102
RTVSPropertyOp23
 70
     1
102
RTVSPropertyOp24
 70
     1
102
RTVSPropertyOp25
 70
     1
102
RTVSPropertyOp26
 70
     1
102
RTVSPropertyOp27
 70
     1
102
RTVSPropertyOp28
 70
     1
102
RTVSPropertyOp29
 70
     1
102
RTVSPropertyOp30
 70
     1
102
RTVSPropertyOp31
 70
     1
102
RTVSPropertyOp32
 70
     1
102
RTVSPropertyOp33
 70
     1
102
RTVSPropertyOp34
 70
     1
102
RTVSPropertyOp35
 70
     1
102
RTVSPropertyOp36
 70
     1
102
RTVSPropertyOp37
 70
     1
102
RTVSPropertyOp38
 70
     1
102
RTVSPropertyOp39
 70
     1
102
RTVSPropertyOp40
 70
     1
102
RTVSPropertyOp41
 70
     1
102
RTVSPropertyOp42
 70
     1
102
RTVSPropertyOp43
 70
     1
102
RTVSPropertyOp44
 70
     1
102
RTVSPropertyOp45
 70
     1
102
RTVSPropertyOp46
 70
     1
102
RTVSPropertyOp47
 70
     1
102
RTVSPropertyOp48
 70
     1
102
RTVSPropertyOp49
 70
     1
102
RTVSPropertyOp50
 70
     1
102
RTVSPropertyOp51
 70
     0
102
RTVSPropertyOp52
 70
     0
102
RTVSPropertyOp53
 70
     1
102
RTVSPropertyOp54
 70
     1
102
RTVSPropertyOp55
 70
     1
102
RTVSPropertyOp56
 70
     1
102
RTVSPropertyOp57
 70
     1
102
RTVSPost2010Prop28
280
     0
102
RTVSPost2010PropOp28
 70
     1
102
RTVSPost2010Prop29
280
     1
102
RTVSPost2010PropOp29
 70
     1
102
RTVSPost2010Prop30
280
     1
102
RTVSPost2010PropOp30
 70
     1
102
RTVSPost2010Prop31
280
     0
102
RTVSPost2010PropOp31
 70
     1
102
RTVSPost2010Prop32
280
     0
102
RTVSPost2010PropOp32
 70
     1
102
RTVSPost2010Prop33
280
     0
102
RTVSPost2010PropOp33
 70
     1
102
RTVSPost2010Prop34
280
     0
102
RTVSPost2010PropOp34
 70
     1
102
RTVSPost2010Prop35
280
     0
102
RTVSPost2010PropOp35
 70
     1
102
RTVSPost2010Prop36
280
     0
102
RTVSPost2010PropOp36
 70
     1
102
RTVSPost2010Prop37
 90
       50
102
RTVSPost2010PropOp37
 70
     1
102
RTVSPost2010Prop38
140
0.0
102
RTVSPost2010PropOp38
 70
     1
102
RTVSPost2010Prop39
140
1.0
102
RTVSPost2010PropOp39
 70
     1
102
RTVSPost2010Prop40
 90
        0
102
RTVSPost2010PropOp40
 70
     1
102
RTVSPost2010Prop41ColorIndex
 90
       18
102
RTVSPost2010Prop41ColorRGB
 90
        0
102
RTVSPost2010PropOp41
 70
     1
102
RTVSPost2010Prop42
 90
       50
102
RTVSPost2010PropOp42
 70
     1
102
RTVSPost2010Prop43
 90
        3
102
RTVSPost2010PropOp43
 70
     1
102
RTVSPost2010Prop44ColorIndex
 90
        5
102
RTVSPost2010Prop44ColorRGB
 90
      255
102
RTVSPost2010PropOp44
 70
     1
102
RTVSPost2010Prop45
280
     0
102
RTVSPost2010PropOp45
 70
     1
102
RTVSPost2010Prop46
 90
       50
102
RTVSPost2010PropOp46
 70
     1
102
RTVSPost2010Prop47
 90
       50
102
RTVSPost2010PropOp47
 70
     1
102
RTVSPost2010Prop48
 90
       50
102
RTVSPost2010PropOp48
 70
     1
102
RTVSPost2010Prop49
280
     0
102
RTVSPost2010PropOp49
 70
     1
102
RTVSPost2010Prop50
 90
       50
102
RTVSPost2010PropOp50
 70
     1
102
RTVSPost2010Prop51ColorIndex
 90
      256
102
RTVSPost2010Prop51ColorRGB
 90
-16777216
102
RTVSPost2010PropOp51
 70
     0
102
RTVSPost2010Prop52
140
1.0
102
RTVSPost2010PropOp52
 70
     0
102
RTVSPost2010Prop53
 90
        2
102
RTVSPost2010PropOp53
 70
     1
102
RTVSPost2010Prop54
  1
strokes_ogs.tif
102
RTVSPost2010PropOp54
 70
     1
102
RTVSPost2010Prop55
280
     0
102
RTVSPost2010PropOp55
 70
     1
102
RTVSPost2010Prop56
140
1.0
102
RTVSPost2010PropOp56
 70
     1
102
RTVSPost2010Prop57
140
1.0
102
RTVSPost2010PropOp57
 70
     1
  0
XRECORD
  5
219
102
{ACAD_REACTORS
330
218
102
}
330
218
100
AcDbXrecord
280
     1
102
RTVSPropertyOp0
 70
     1
102
RTVSPropertyOp1
 70
     1
102
RTVSPropertyOp2
 70
     1
102
RTVSPropertyOp3
 70
     1
102
RTVSPropertyOp4
 70
     1
102
RTVSPropertyOp5
 70
     1
102
RTVSPropertyOp6
 70
     1
102
RTVSPropertyOp7
 70
     1
102
RTVSPropertyOp8
 70
     1
102
RTVSPropertyOp9
 70
     1
102
RTVSPropertyOp10
 70
     1
102
RTVSPropertyOp11
 70
     1
102
RTVSPropertyOp12
 70
     1
102
RTVSPropertyOp13
 70
     1
102
RTVSPropertyOp14
 70
     1
102
RTVSPropertyOp15
 70
     1
102
RTVSPropertyOp16
 70
     1
102
RTVSPropertyOp17
 70
     1
102
RTVSPropertyOp18
 70
     1
102
RTVSPropertyOp19
 70
     1
102
RTVSPropertyOp20
 70
     1
102
RTVSPropertyOp21
 70
     1
102
RTVSPropertyOp22
 70
     1
102
RTVSPropertyOp23
 70
     1
102
RTVSPropertyOp24
 70
     1
102
RTVSPropertyOp25
 70
     1
102
RTVSPropertyOp26
 70
     1
102
RTVSPropertyOp27
 70
     1
102
RTVSPropertyOp28
 70
     1
102
RTVSPropertyOp29
 70
     1
102
RTVSPropertyOp30
 70
     1
102
RTVSPropertyOp31
 70
     1
102
RTVSPropertyOp32
 70
     1
102
RTVSPropertyOp33
 70
     1
102
RTVSPropertyOp34
 70
     1
102
RTVSPropertyOp35
 70
     1
102
RTVSPropertyOp36
 70
     1
102
RTVSPropertyOp37
 70
     1
102
RTVSPropertyOp38
 70
     1
102
RTVSPropertyOp39
 70
     1
102
RTVSPropertyOp40
 70
     1
102
RTVSPropertyOp41
 70
     1
102
RTVSPropertyOp42
 70
     1
102
RTVSPropertyOp43
 70
     1
102
RTVSPropertyOp44
 70
     1
102
RTVSPropertyOp45
 70
     1
102
RTVSPropertyOp46
 70
     1
102
RTVSPropertyOp47
 70
     1
102
RTVSPropertyOp48
 70
     1
102
RTVSPropertyOp49
 70
     1
102
RTVSPropertyOp50
 70
     1
102
RTVSPropertyOp51
 70
     0
102
RTVSPropertyOp52
 70
     0
102
RTVSPropertyOp53
 70
     1
102
RTVSPropertyOp54
 70
     1
102
RTVSPropertyOp55
 70
     1
102
RTVSPropertyOp56
 70
     1
102
RTVSPropertyOp57
 70
     1
102
RTVSPost2010Prop28
280
     0
102
RTVSPost2010PropOp28
 70
     1
102
RTVSPost2010Prop29
280
     1
102
RTVSPost2010PropOp29
 70
     1
102
RTVSPost2010Prop30
280
     1
102
RTVSPost2010PropOp30
 70
     1
102
RTVSPost2010Prop31
280
     0
102
RTVSPost2010PropOp31
 70
     1
102
RTVSPost2010Prop32
280
     0
102
RTVSPost2010PropOp32
 70
     1
102
RTVSPost2010Prop33
280
     0
102
RTVSPost2010PropOp33
 70
     1
102
RTVSPost2010Prop34
280
     0
102
RTVSPost2010PropOp34
 70
     1
102
RTVSPost2010Prop35
280
     0
102
RTVSPost2010PropOp35
 70
     1
102
RTVSPost2010Prop36
280
     0
102
RTVSPost2010PropOp36
 70
     1
102
RTVSPost2010Prop37
 90
       50
102
RTVSPost2010PropOp37
 70
     1
102
RTVSPost2010Prop38
140
0.0
102
RTVSPost2010PropOp38
 70
     1
102
RTVSPost2010Prop39
140
1.0
102
RTVSPost2010PropOp39
 70
     1
102
RTVSPost2010Prop40
 90
        0
102
RTVSPost2010PropOp40
 70
     1
102
RTVSPost2010Prop41ColorIndex
 90
       18
102
RTVSPost2010Prop41ColorRGB
 90
        0
102
RTVSPost2010PropOp41
 70
     1
102
RTVSPost2010Prop42
 90
       50
102
RTVSPost2010PropOp42
 70
     1
102
RTVSPost2010Prop43
 90
        3
102
RTVSPost2010PropOp43
 70
     1
102
RTVSPost2010Prop44ColorIndex
 90
        5
102
RTVSPost2010Prop44ColorRGB
 90
      255
102
RTVSPost2010PropOp44
 70
     1
102
RTVSPost2010Prop45
280
     0
102
RTVSPost2010PropOp45
 70
     1
102
RTVSPost2010Prop46
 90
       50
102
RTVSPost2010PropOp46
 70
     1
102
RTVSPost2010Prop47
 90
       50
102
RTVSPost2010PropOp47
 70
     1
102
RTVSPost2010Prop48
 90
       50
102
RTVSPost2010PropOp48
 70
     1
102
RTVSPost2010Prop49
280
     0
102
RTVSPost2010PropOp49
 70
     1
102
RTVSPost2010Prop50
 90
       50
102
RTVSPost2010PropOp50
 70
     1
102
RTVSPost2010Prop51ColorIndex
 90
      256
102
RTVSPost2010Prop51ColorRGB
 90
-16777216
102
RTVSPost2010PropOp51
 70
     0
102
RTVSPost2010Prop52
140
1.0
102
RTVSPost2010PropOp52
 70
     0
102
RTVSPost2010Prop53
 90
        2
102
RTVSPost2010PropOp53
 70
     1
102
RTVSPost2010Prop54
  1
strokes_ogs.tif
102
RTVSPost2010PropOp54
 70
     1
102
RTVSPost2010Prop55
280
     0
102
RTVSPost2010PropOp55
 70
     1
102
RTVSPost2010Prop56
140
1.0
102
RTVSPost2010PropOp56
 70
     1
102
RTVSPost2010Prop57
140
1.0
102
RTVSPost2010PropOp57
 70
     1
  0
ENDSEC
  0
EOF
