  0
SECTION
  2
HEADER
  9
$ACADVER
  1
AC1018
  9
$ACADMAINTVER
 70
     0
  9
$DWGCODEPAGE
  3
ANSI_1252
  9
$COMMENTS
  1
File was created by Mastercam X9
  9
$INSBASE
 10
0.0
 20
0.0
 30
0.0
  9
$EXTMIN
 10
-1909.605712323841
 20
-115.1582249225999
 30
0.0
  9
$EXTMAX
 10
1209.791069844892
 20
347.8120960199772
 30
0.0
  9
$LIMMIN
 10
0.0
 20
0.0
  9
$LIMMAX
 10
12.0
 20
9.0
  9
$ORTHOMODE
 70
     0
  9
$REGENMODE
 70
     1
  9
$FILLMODE
 70
     1
  9
$QTEXTMODE
 70
     0
  9
$MIRRTEXT
 70
     1
  9
$LTSCALE
 40
1.0
  9
$ATTMODE
 70
     1
  9
$TEXTSIZE
 40
0.2
  9
$TRACEWID
 40
0.05
  9
$TEXTSTYLE
  7
Standard
  9
$CLAYER
  8
0
  9
$CELTYPE
  6
ByLayer
  9
$CECOLOR
 62
   256
  9
$CELTSCALE
 40
1.0
  9
$DISPSILH
 70
     0
  9
$DIMSCALE
 40
1.0
  9
$DIMASZ
 40
0.18
  9
$DIMEXO
 40
0.0625
  9
$DIMDLI
 40
0.38
  9
$DIMRND
 40
0.0
  9
$DIMDLE
 40
0.0
  9
$DIMEXE
 40
0.18
  9
$DIMTP
 40
0.0
  9
$DIMTM
 40
0.0
  9
$DIMTXT
 40
0.18
  9
$DIMCEN
 40
0.09
  9
$DIMTSZ
 40
0.0
  9
$DIMTOL
 70
     0
  9
$DIMLIM
 70
     0
  9
$DIMTIH
 70
     1
  9
$DIMTOH
 70
     1
  9
$DIMSE1
 70
     0
  9
$DIMSE2
 70
     0
  9
$DIMTAD
 70
     0
  9
$DIMZIN
 70
     0
  9
$DIMBLK
  1

  9
$DIMASO
 70
     1
  9
$DIMSHO
 70
     1
  9
$DIMPOST
  1

  9
$DIMAPOST
  1

  9
$DIMALT
 70
     0
  9
$DIMALTD
 70
     2
  9
$DIMALTF
 40
25.4
  9
$DIMLFAC
 40
1.0
  9
$DIMTOFL
 70
     0
  9
$DIMTVP
 40
0.0
  9
$DIMTIX
 70
     0
  9
$DIMSOXD
 70
     0
  9
$DIMSAH
 70
     0
  9
$DIMBLK1
  1

  9
$DIMBLK2
  1

  9
$DIMSTYLE
  2
Standard
  9
$DIMCLRD
 70
     0
  9
$DIMCLRE
 70
     0
  9
$DIMCLRT
 70
     0
  9
$DIMTFAC
 40
1.0
  9
$DIMGAP
 40
0.09
  9
$DIMJUST
 70
     0
  9
$DIMSD1
 70
     0
  9
$DIMSD2
 70
     0
  9
$DIMTOLJ
 70
     1
  9
$DIMTZIN
 70
     0
  9
$DIMALTZ
 70
     0
  9
$DIMALTTZ
 70
     0
  9
$DIMUPT
 70
     0
  9
$DIMDEC
 70
     4
  9
$DIMTDEC
 70
     4
  9
$DIMALTU
 70
     2
  9
$DIMALTTD
 70
     2
  9
$DIMTXSTY
  7
Standard
  9
$DIMAUNIT
 70
     0
  9
$DIMADEC
 70
     0
  9
$DIMALTRND
 40
0.0
  9
$DIMAZIN
 70
     0
  9
$DIMDSEP
 70
    46
  9
$DIMATFIT
 70
     3
  9
$DIMFRAC
 70
     0
  9
$DIMLDRBLK
  1

  9
$DIMLUNIT
 70
     2
  9
$DIMLWD
 70
    -2
  9
$DIMLWE
 70
    -2
  9
$DIMTMOVE
 70
     0
  9
$LUNITS
 70
     2
  9
$LUPREC
 70
     4
  9
$SKETCHINC
 40
0.1
  9
$FILLETRAD
 40
0.5
  9
$AUNITS
 70
     0
  9
$AUPREC
 70
     0
  9
$MENU
  1
.
  9
$ELEVATION
 40
0.0
  9
$PELEVATION
 40
0.0
  9
$THICKNESS
 40
0.0
  9
$LIMCHECK
 70
     0
  9
$CHAMFERA
 40
0.0
  9
$CHAMFERB
 40
0.0
  9
$CHAMFERC
 40
0.0
  9
$CHAMFERD
 40
0.0
  9
$SKPOLY
 70
     0
  9
$TDCREATE
 40
2453737.5
  9
$TDUCREATE
 40
2453737.708333333
  9
$TDUPDATE
 40
2457613.625810521
  9
$TDUUPDATE
 40
2457613.834143854
  9
$TDINDWG
 40
0.0000000116
  9
$TDUSRTIMER
 40
0.0000000116
  9
$USRTIMER
 70
     1
  9
$ANGBASE
 50
0.0
  9
$ANGDIR
 70
     0
  9
$PDMODE
 70
     2
  9
$PDSIZE
 40
0.1
  9
$PLINEWID
 40
0.0
  9
$SPLFRAME
 70
     0
  9
$SPLINETYPE
 70
     6
  9
$SPLINESEGS
 70
     8
  9
$HANDSEED
  5
2F8
  9
$SURFTAB1
 70
     6
  9
$SURFTAB2
 70
     6
  9
$SURFTYPE
 70
     6
  9
$SURFU
 70
     6
  9
$SURFV
 70
     6
  9
$UCSBASE
  2

  9
$UCSNAME
  2

  9
$UCSORG
 10
0.0
 20
0.0
 30
0.0
  9
$UCSXDIR
 10
1.0
 20
0.0
 30
0.0
  9
$UCSYDIR
 10
0.0
 20
1.0
 30
0.0
  9
$UCSORTHOREF
  2

  9
$UCSORTHOVIEW
 70
     0
  9
$UCSORGTOP
 10
0.0
 20
0.0
 30
0.0
  9
$UCSORGBOTTOM
 10
0.0
 20
0.0
 30
0.0
  9
$UCSORGLEFT
 10
0.0
 20
0.0
 30
0.0
  9
$UCSORGRIGHT
 10
0.0
 20
0.0
 30
0.0
  9
$UCSORGFRONT
 10
0.0
 20
0.0
 30
0.0
  9
$UCSORGBACK
 10
0.0
 20
0.0
 30
0.0
  9
$PUCSBASE
  2

  9
$PUCSNAME
  2

  9
$PUCSORG
 10
0.0
 20
0.0
 30
0.0
  9
$PUCSXDIR
 10
1.0
 20
0.0
 30
0.0
  9
$PUCSYDIR
 10
0.0
 20
1.0
 30
0.0
  9
$PUCSORTHOREF
  2

  9
$PUCSORTHOVIEW
 70
     0
  9
$PUCSORGTOP
 10
0.0
 20
0.0
 30
0.0
  9
$PUCSORGBOTTOM
 10
0.0
 20
0.0
 30
0.0
  9
$PUCSORGLEFT
 10
0.0
 20
0.0
 30
0.0
  9
$PUCSORGRIGHT
 10
0.0
 20
0.0
 30
0.0
  9
$PUCSORGFRONT
 10
0.0
 20
0.0
 30
0.0
  9
$PUCSORGBACK
 10
0.0
 20
0.0
 30
0.0
  9
$USERI1
 70
     0
  9
$USERI2
 70
     0
  9
$USERI3
 70
     0
  9
$USERI4
 70
     0
  9
$USERI5
 70
     0
  9
$USERR1
 40
0.0
  9
$USERR2
 40
0.0
  9
$USERR3
 40
0.0
  9
$USERR4
 40
0.0
  9
$USERR5
 40
0.0
  9
$WORLDVIEW
 70
     1
  9
$SHADEDGE
 70
     3
  9
$SHADEDIF
 70
    70
  9
$TILEMODE
 70
     1
  9
$MAXACTVP
 70
    64
  9
$PINSBASE
 10
0.0
 20
0.0
 30
0.0
  9
$PLIMCHECK
 70
     0
  9
$PEXTMIN
 10
0.0
 20
0.0
 30
0.0
  9
$PEXTMAX
 10
0.0
 20
0.0
 30
0.0
  9
$PLIMMIN
 10
-0.25
 20
-0.25
  9
$PLIMMAX
 10
10.75
 20
8.25
  9
$UNITMODE
 70
     0
  9
$VISRETAIN
 70
     1
  9
$PLINEGEN
 70
     0
  9
$PSLTSCALE
 70
     1
  9
$TREEDEPTH
 70
  3020
  9
$CMLSTYLE
  2
Standard
  9
$CMLJUST
 70
     0
  9
$CMLSCALE
 40
1.0
  9
$PROXYGRAPHICS
 70
     1
  9
$MEASUREMENT
 70
     0
  9
$CELWEIGHT
370
    -1
  9
$ENDCAPS
280
     0
  9
$JOINSTYLE
280
     0
  9
$LWDISPLAY
290
     0
  9
$INSUNITS
 70
     1
  9
$HYPERLINKBASE
  1

  9
$STYLESHEET
  1

  9
$XEDIT
290
     1
  9
$CEPSNTYPE
380
     0
  9
$PSTYLEMODE
290
     1
  9
$FINGERPRINTGUID
  2
{FAAF0E65-06CB-44D7-8B99-035A1BA3D05A}
  9
$VERSIONGUID
  2
{FAEB1C32-E019-11D5-929B-00C0DF256EC4}
  9
$EXTNAMES
290
     1
  9
$PSVPSCALE
 40
0.0
  9
$OLESTARTUP
290
     0
  9
$SORTENTS
280
   127
  9
$INDEXCTL
280
     0
  9
$HIDETEXT
280
     1
  9
$XCLIPFRAME
290
     0
  9
$HALOGAP
280
     0
  9
$OBSCOLOR
 70
   257
  9
$OBSLTYPE
280
     0
  9
$INTERSECTIONDISPLAY
280
     0
  9
$INTERSECTIONCOLOR
 70
   257
  9
$DIMASSOC
280
     2
  9
$PROJECTNAME
  1

  0
ENDSEC
  0
SECTION
  2
CLASSES
  0
CLASS
  1
ACDBDICTIONARYWDFLT
  2
AcDbDictionaryWithDefault
  3
ObjectDBX Classes
 90
        0
 91
        4
280
     0
281
     0
  0
CLASS
  1
VISUALSTYLE
  2
AcDbVisualStyle
  3
ObjectDBX Classes
 90
     4095
 91
        4
280
     0
281
     0
  0
CLASS
  1
MATERIAL
  2
AcDbMaterial
  3
ObjectDBX Classes
 90
     1153
 91
        4
280
     0
281
     0
  0
CLASS
  1
SCALE
  2
AcDbScale
  3
ObjectDBX Classes
 90
     1153
 91
        4
280
     0
281
     0
  0
CLASS
  1
TABLESTYLE
  2
AcDbTableStyle
  3
ObjectDBX Classes
 90
     4095
 91
        4
280
     0
281
     0
  0
CLASS
  1
MLEADERSTYLE
  2
AcDbMLeaderStyle
  3
ACDB_MLEADERSTYLE_CLASS
 90
     4095
 91
        4
280
     0
281
     0
  0
CLASS
  1
SUN
  2
AcDbSun
  3
SCENEOE
 90
     1153
 91
        4
280
     0
281
     0
  0
CLASS
  1
DICTIONARYVAR
  2
AcDbDictionaryVar
  3
ObjectDBX Classes
 90
        0
 91
        4
280
     0
281
     0
  0
CLASS
  1
CELLSTYLEMAP
  2
AcDbCellStyleMap
  3
ObjectDBX Classes
 90
     1152
 91
        4
280
     0
281
     0
  0
ENDSEC
  0
SECTION
  2
TABLES
  0
TABLE
  2
VPORT
  5
8
102
{ACAD_XDICTIONARY
360
2B1
102
}
330
0
100
AcDbSymbolTable
 70
     1
  0
VPORT
  5
29
330
8
100
AcDbSymbolTableRecord
100
AcDbViewportTableRecord
  2
*Active
 70
     0
 10
0.0
 20
0.0
 11
1.0
 21
1.0
 12
10.42990654205607
 22
4.5
 13
0.0
 23
0.0
 14
0.5
 24
0.5
 15
0.5
 25
0.5
 16
0.0
 26
0.0
 36
1.0
 17
0.0
 27
0.0
 37
0.0
 40
9.0
 41
1.972972972850329
 42
50.0
 43
0.0
 44
0.0
 50
0.0
 51
0.0
 71
     0
 72
   100
 73
     1
 74
     3
 75
     0
 76
     0
 77
     0
 78
     0
281
     0
 65
     1
110
0.0
120
0.0
130
0.0
111
1.0
121
0.0
131
0.0
112
0.0
122
1.0
132
0.0
 79
     0
146
0.0
  0
ENDTAB
  0
TABLE
  2
LTYPE
  5
5
330
0
100
AcDbSymbolTable
 70
     5
  0
LTYPE
  5
14
330
5
100
AcDbSymbolTableRecord
100
AcDbLinetypeTableRecord
  2
ByBlock
 70
     0
  3

 72
    65
 73
     0
 40
0.0
  0
LTYPE
  5
15
330
5
100
AcDbSymbolTableRecord
100
AcDbLinetypeTableRecord
  2
ByLayer
 70
     0
  3

 72
    65
 73
     0
 40
0.0
  0
LTYPE
  5
16
330
5
100
AcDbSymbolTableRecord
100
AcDbLinetypeTableRecord
  2
Continuous
 70
     0
  3
Solid line
 72
    65
 73
     0
 40
0.0
  0
LTYPE
  5
6F
330
5
100
AcDbSymbolTableRecord
100
AcDbLinetypeTableRecord
  2
Continuous2
 70
     0
  3
Solid Line
 72
    65
 73
     0
 40
0.0
  0
LTYPE
  5
70
330
5
100
AcDbSymbolTableRecord
100
AcDbLinetypeTableRecord
  2
DASHED
 70
     0
  3
__ __ __ __ __ __ __ __ __ __ __ __ __ __ __ __
 72
    83
 73
     2
 40
0.5
 49
0.375
 74
     0
 49
-0.125
 74
     0
  0
LTYPE
  5
71
330
5
100
AcDbSymbolTableRecord
100
AcDbLinetypeTableRecord
  2
CENTER
 70
     0
  3
____ _ ____ _ ____ _ ____ _ ____ _ ____ _ ____ _
 72
    83
 73
     4
 40
1.0
 49
0.625
 74
     0
 49
-0.125
 74
     0
 49
0.125
 74
     0
 49
-0.125
 74
     0
  0
LTYPE
  5
72
330
5
100
AcDbSymbolTableRecord
100
AcDbLinetypeTableRecord
  2
PHANTOM
 70
     0
  3
___ _ _ ___ _ _ ___ _ _ ___ _ _ ___ _ _ ___ _ _ 
 72
    83
 73
     6
 40
1.0
 49
0.5
 74
     0
 49
-0.1
 74
     0
 49
0.1
 74
     0
 49
-0.1
 74
     0
 49
0.1
 74
     0
 49
-0.1
 74
     0
  0
ENDTAB
  0
TABLE
  2
LAYER
  5
2
330
0
100
AcDbSymbolTable
 70
    41
  0
LAYER
  5
10
330
2
100
AcDbSymbolTableRecord
100
AcDbLayerTableRecord
  2
0
 70
     0
 62
     7
  6
Continuous
370
    -3
390
F
  0
LAYER
  5
73
330
2
100
AcDbSymbolTableRecord
100
AcDbLayerTableRecord
  2
D6
 70
     0
 62
     1
  6
Continuous
370
    -3
390
F
  0
LAYER
  5
74
330
2
100
AcDbSymbolTableRecord
100
AcDbLayerTableRecord
  2
Section Q
 70
     0
 62
     1
  6
Continuous
370
    -3
390
F
  0
LAYER
  5
75
330
2
100
AcDbSymbolTableRecord
100
AcDbLayerTableRecord
  2
Section H
 70
     0
 62
     1
  6
Continuous
370
    -3
390
F
  0
LAYER
  5
76
330
2
100
AcDbSymbolTableRecord
100
AcDbLayerTableRecord
  2
Section E
 70
     0
 62
     1
  6
Continuous
370
    -3
390
F
  0
LAYER
  5
77
330
2
100
AcDbSymbolTableRecord
100
AcDbLayerTableRecord
  2
Section A
 70
     0
 62
     1
  6
Continuous
370
    -3
390
F
  0
LAYER
  5
78
330
2
100
AcDbSymbolTableRecord
100
AcDbLayerTableRecord
  2
Section B
 70
     0
 62
     1
  6
Continuous
370
    -3
390
F
  0
LAYER
  5
79
330
2
100
AcDbSymbolTableRecord
100
AcDbLayerTableRecord
  2
Section C
 70
     0
 62
     1
  6
Continuous
370
    -3
390
F
  0
LAYER
  5
7A
330
2
100
AcDbSymbolTableRecord
100
AcDbLayerTableRecord
  2
Section D
 70
     0
 62
     1
  6
Continuous
370
    -3
390
F
  0
LAYER
  5
7B
330
2
100
AcDbSymbolTableRecord
100
AcDbLayerTableRecord
  2
D1
 70
     0
 62
     1
  6
Continuous
370
    -3
390
F
  0
LAYER
  5
7C
330
2
100
AcDbSymbolTableRecord
100
AcDbLayerTableRecord
  2
Section F
 70
     0
 62
     1
  6
Continuous
370
    -3
390
F
  0
LAYER
  5
7D
330
2
100
AcDbSymbolTableRecord
100
AcDbLayerTableRecord
  2
Section G
 70
     0
 62
     1
  6
Continuous
370
    -3
390
F
  0
LAYER
  5
7E
330
2
100
AcDbSymbolTableRecord
100
AcDbLayerTableRecord
  2
Section I
 70
     0
 62
     1
  6
Continuous
370
    -3
390
F
  0
LAYER
  5
7F
330
2
100
AcDbSymbolTableRecord
100
AcDbLayerTableRecord
  2
Section J
 70
     0
 62
     1
  6
Continuous
370
    -3
390
F
  0
LAYER
  5
80
330
2
100
AcDbSymbolTableRecord
100
AcDbLayerTableRecord
  2
Glass for Production
 70
     0
 62
     1
  6
Continuous
370
    -3
390
F
  0
LAYER
  5
81
330
2
100
AcDbSymbolTableRecord
100
AcDbLayerTableRecord
  2
Red Hidden Lines
 70
     0
 62
     1
  6
Continuous
370
    -3
390
F
  0
LAYER
  5
82
330
2
100
AcDbSymbolTableRecord
100
AcDbLayerTableRecord
  2
Section Lines
 70
     0
 62
     1
  6
Continuous
370
    -3
390
F
  0
LAYER
  5
83
330
2
100
AcDbSymbolTableRecord
100
AcDbLayerTableRecord
  2
Pink Reference Lines
 70
     0
 62
     1
  6
Continuous
370
    -3
390
F
  0
LAYER
  5
84
330
2
100
AcDbSymbolTableRecord
100
AcDbLayerTableRecord
  2
Glass Size
 70
     0
 62
     1
  6
Continuous
370
    -3
390
F
  0
LAYER
  5
85
330
2
100
AcDbSymbolTableRecord
100
AcDbLayerTableRecord
  2
Full Sections
 70
     0
 62
     1
  6
Continuous
370
    -3
390
F
  0
LAYER
  5
86
330
2
100
AcDbSymbolTableRecord
100
AcDbLayerTableRecord
  2
Section K
 70
     0
 62
     1
  6
Continuous
370
    -3
390
F
  0
LAYER
  5
87
330
2
100
AcDbSymbolTableRecord
100
AcDbLayerTableRecord
  2
Section L
 70
     0
 62
     1
  6
Continuous
370
    -3
390
F
  0
LAYER
  5
88
330
2
100
AcDbSymbolTableRecord
100
AcDbLayerTableRecord
  2
Section M
 70
     0
 62
     1
  6
Continuous
370
    -3
390
F
  0
LAYER
  5
89
330
2
100
AcDbSymbolTableRecord
100
AcDbLayerTableRecord
  2
Section N
 70
     0
 62
     1
  6
Continuous
370
    -3
390
F
  0
LAYER
  5
8A
330
2
100
AcDbSymbolTableRecord
100
AcDbLayerTableRecord
  2
Section O
 70
     0
 62
     1
  6
Continuous
370
    -3
390
F
  0
LAYER
  5
8B
330
2
100
AcDbSymbolTableRecord
100
AcDbLayerTableRecord
  2
Section P
 70
     0
 62
     1
  6
Continuous
370
    -3
390
F
  0
LAYER
  5
8C
330
2
100
AcDbSymbolTableRecord
100
AcDbLayerTableRecord
  2
Section R
 70
     0
 62
     1
  6
Continuous
370
    -3
390
F
  0
LAYER
  5
8D
330
2
100
AcDbSymbolTableRecord
100
AcDbLayerTableRecord
  2
Section S
 70
     0
 62
     1
  6
Continuous
370
    -3
390
F
  0
LAYER
  5
8E
330
2
100
AcDbSymbolTableRecord
100
AcDbLayerTableRecord
  2
Section T
 70
     0
 62
     1
  6
Continuous
370
    -3
390
F
  0
LAYER
  5
8F
330
2
100
AcDbSymbolTableRecord
100
AcDbLayerTableRecord
  2
Section U
 70
     0
 62
     1
  6
Continuous
370
    -3
390
F
  0
LAYER
  5
90
330
2
100
AcDbSymbolTableRecord
100
AcDbLayerTableRecord
  2
Section V
 70
     0
 62
     1
  6
Continuous
370
    -3
390
F
  0
LAYER
  5
91
330
2
100
AcDbSymbolTableRecord
100
AcDbLayerTableRecord
  2
Section W
 70
     0
 62
     1
  6
Continuous
370
    -3
390
F
  0
LAYER
  5
92
330
2
100
AcDbSymbolTableRecord
100
AcDbLayerTableRecord
  2
Section X
 70
     0
 62
     1
  6
Continuous
370
    -3
390
F
  0
LAYER
  5
93
330
2
100
AcDbSymbolTableRecord
100
AcDbLayerTableRecord
  2
Section Y
 70
     0
 62
     1
  6
Continuous
370
    -3
390
F
  0
LAYER
  5
94
330
2
100
AcDbSymbolTableRecord
100
AcDbLayerTableRecord
  2
Section Z
 70
     0
 62
     1
  6
Continuous
370
    -3
390
F
  0
LAYER
  5
95
330
2
100
AcDbSymbolTableRecord
100
AcDbLayerTableRecord
  2
Blank Page             Plot @.0625
 70
     0
 62
     1
  6
Continuous
370
    -3
390
F
  0
LAYER
  5
96
330
2
100
AcDbSymbolTableRecord
100
AcDbLayerTableRecord
  2
Glass Info For Production
 70
     0
 62
     1
  6
Continuous
370
    -3
390
F
  0
LAYER
  5
97
330
2
100
AcDbSymbolTableRecord
100
AcDbLayerTableRecord
  2
Operable Louver Pins
 70
     0
 62
     1
  6
Continuous
370
    -3
390
F
  0
LAYER
  5
98
330
2
100
AcDbSymbolTableRecord
100
AcDbLayerTableRecord
  2
Pg 4
 70
     0
 62
     1
  6
Continuous
370
    -3
390
F
  0
LAYER
  5
99
330
2
100
AcDbSymbolTableRecord
100
AcDbLayerTableRecord
  2
Generic Sections
 70
     0
 62
     1
  6
Continuous
370
    -3
390
F
  0
LAYER
  5
9A
330
2
100
AcDbSymbolTableRecord
100
AcDbLayerTableRecord
  2
Impact Door Templates  Export to Drawings
 70
     0
 62
     1
  6
Continuous
370
    -3
390
F
  0
ENDTAB
  0
TABLE
  2
STYLE
  5
3
330
0
100
AcDbSymbolTable
 70
     4
  0
STYLE
  5
11
330
3
100
AcDbSymbolTableRecord
100
AcDbTextStyleTableRecord
  2
Standard
 70
     0
 40
0.0
 41
1.0
 50
0.0
 71
     0
 42
0.2
  3
txt
  4

  0
STYLE
  5
AC
330
3
100
AcDbSymbolTableRecord
100
AcDbTextStyleTableRecord
  2
MCStick_A0.500000_S0.000000
 70
     0
 40
0.0
 41
0.5
 50
0.0
 71
     0
 42
0.2
  3
Simplex
  4

  0
STYLE
  5
FC
330
3
100
AcDbSymbolTableRecord
100
AcDbTextStyleTableRecord
  2
MCStick_A0.625000_S0.000000
 70
     0
 40
0.0
 41
0.625
 50
0.0
 71
     0
 42
0.2
  3
Simplex
  4

  0
STYLE
  5
27A
330
3
100
AcDbSymbolTableRecord
100
AcDbTextStyleTableRecord
  2
MCStick_A0.875000_S0.000000
 70
     0
 40
0.0
 41
0.875
 50
0.0
 71
     0
 42
0.2
  3
Simplex
  4

  0
ENDTAB
  0
TABLE
  2
VIEW
  5
6
330
0
100
AcDbSymbolTable
 70
     0
  0
ENDTAB
  0
TABLE
  2
UCS
  5
7
330
0
100
AcDbSymbolTable
 70
     0
  0
ENDTAB
  0
TABLE
  2
APPID
  5
9
330
0
100
AcDbSymbolTable
 70
     3
  0
APPID
  5
12
330
9
100
AcDbSymbolTableRecord
100
AcDbRegAppTableRecord
  2
ACAD
 70
     0
  0
APPID
  5
6E
330
9
100
AcDbSymbolTableRecord
100
AcDbRegAppTableRecord
  2
Mastercam X9
 70
     0
  0
APPID
  5
2F0
330
9
100
AcDbSymbolTableRecord
100
AcDbRegAppTableRecord
  2
ACAD_MLEADERVER
 70
     0
  0
ENDTAB
  0
TABLE
  2
DIMSTYLE
  5
A
330
0
100
AcDbSymbolTable
 70
     1
100
AcDbDimStyleTable
  0
DIMSTYLE
105
27
330
A
100
AcDbSymbolTableRecord
100
AcDbDimStyleTableRecord
  2
Standard
 70
     0
178
     0
340
11
  0
ENDTAB
  0
TABLE
  2
BLOCK_RECORD
  5
1
330
0
100
AcDbSymbolTable
 70
     1
  0
BLOCK_RECORD
  5
1F
330
1
100
AcDbSymbolTableRecord
100
AcDbBlockTableRecord
  2
*Model_Space
340
22
  0
BLOCK_RECORD
  5
23
330
1
100
AcDbSymbolTableRecord
100
AcDbBlockTableRecord
  2
*Paper_Space
340
26
  0
ENDTAB
  0
ENDSEC
  0
SECTION
  2
BLOCKS
  0
BLOCK
  5
20
330
1F
100
AcDbEntity
  8
0
100
AcDbBlockBegin
  2
*Model_Space
 70
     0
 10
0.0
 20
0.0
 30
0.0
  3
*Model_Space
  1

  0
ENDBLK
  5
21
330
1F
100
AcDbEntity
  8
0
100
AcDbBlockEnd
  0
BLOCK
  5
24
330
23
100
AcDbEntity
 67
     1
  8
0
100
AcDbBlockBegin
  2
*Paper_Space
 70
     0
 10
0.0
 20
0.0
 30
0.0
  3
*Paper_Space
  1

  0
ENDBLK
  5
25
330
23
100
AcDbEntity
 67
     1
  8
0
100
AcDbBlockEnd
  0
ENDSEC
  0
SECTION
  2
ENTITIES
  0
LINE
  5
9B
330
1F
100
AcDbEntity
  8
D6
  6
Continuous2
 62
    96
420
    32768
 60
     1
370
    -3
100
AcDbLine
 10
-1909.605712323841
 20
14.48851871490479
 30
0.0
 11
-1908.41820873588
 21
14.48851871490479
 31
0.0
  0
LINE
  5
9C
330
1F
100
AcDbEntity
  8
D6
  6
Continuous2
 62
    96
420
    32768
 60
     1
370
    -3
100
AcDbLine
 10
-1909.605712323841
 20
0.9516092538833618
 30
0.0
 11
-1908.41820873588
 21
0.9516092538833618
 31
0.0
  0
LINE
  5
9D
330
1F
100
AcDbEntity
  8
D6
  6
Continuous2
 62
    96
420
    32768
 60
     1
370
    -3
100
AcDbLine
 10
-1901.105708169096
 20
-2.272115001486259
 30
0.0
 11
-1899.918204581135
 21
-2.272115001486259
 31
0.0
  0
LINE
  5
9E
330
1F
100
AcDbEntity
  8
D6
  6
Continuous2
 62
    96
420
    32768
 60
     1
370
    -3
100
AcDbLine
 10
-1901.105708169097
 20
10.46224308013916
 30
0.0
 11
-1899.918204581135
 21
10.46224308013916
 31
0.0
  0
LINE
  5
9F
330
1F
100
AcDbEntity
  8
D6
  6
Continuous2
 62
    18
420
        0
 60
     1
370
    -3
100
AcDbLine
 10
-58.00633446097368
 20
-112.5519622521108
 30
0.0
 11
-57.60635111083757
 21
-112.7796028094189
 31
0.0
  0
LINE
  5
A0
330
1F
100
AcDbEntity
  8
D6
  6
Continuous2
 62
     5
420
      255
 60
     1
370
    -3
100
AcDbLine
 10
-56.68653522495691
 20
-113.348318281781
 30
0.0
 11
-57.9916489477158
 21
-112.5605712745282
 31
0.0
  0
LINE
  5
A1
330
1F
100
AcDbEntity
  8
D6
  6
Continuous2
 62
   132
420
    49344
 60
     1
370
    -3
100
AcDbLine
 10
-660.1146669366055
 20
301.3712631759209
 30
0.0
 11
-660.1146669366055
 21
308.3120960199772
 31
0.0
  0
LINE
  5
A2
330
1F
100
AcDbEntity
  8
D6
  6
Continuous2
 62
   132
420
    49344
 60
     1
370
    -3
100
AcDbLine
 10
-658.1146669366055
 20
302.7042631759209
 30
0.0
 11
-660.1146669366055
 21
302.3712631759209
 31
0.0
  0
LINE
  5
A3
330
1F
100
AcDbEntity
  8
D6
  6
Continuous2
 62
   132
420
    49344
 60
     1
370
    -3
100
AcDbLine
 10
-658.1146669366055
 20
302.0382631759209
 30
0.0
 11
-660.1146669366055
 21
302.3712631759209
 31
0.0
  0
LINE
  5
A4
330
1F
100
AcDbEntity
  8
D6
  6
Continuous2
 62
   132
420
    49344
 60
     1
370
    -3
100
AcDbLine
 10
-626.1146669366055
 20
302.0382631759209
 30
0.0
 11
-624.1146669366055
 21
302.3712631759209
 31
0.0
  0
LINE
  5
A5
330
1F
100
AcDbEntity
  8
D6
  6
Continuous2
 62
   132
420
    49344
 60
     1
370
    -3
100
AcDbLine
 10
-626.1146669366055
 20
302.7042631759209
 30
0.0
 11
-624.1146669366055
 21
302.3712631759209
 31
0.0
  0
LINE
  5
A6
330
1F
100
AcDbEntity
  8
D6
  6
Continuous2
 62
   132
420
    49344
 60
     1
370
    -3
100
AcDbLine
 10
-646.2146669366056
 20
302.3712631759209
 30
0.0
 11
-660.1146669366055
 21
302.3712631759209
 31
0.0
  0
LINE
  5
A7
330
1F
100
AcDbEntity
  8
D6
  6
Continuous2
 62
   132
420
    49344
 60
     1
370
    -3
100
AcDbLine
 10
-658.1146669366055
 20
302.7042631759209
 30
0.0
 11
-660.1146669366055
 21
302.3712631759209
 31
0.0
  0
LINE
  5
A8
330
1F
100
AcDbEntity
  8
D6
  6
Continuous2
 62
   132
420
    49344
 60
     1
370
    -3
100
AcDbLine
 10
-658.1146669366055
 20
302.0382631759209
 30
0.0
 11
-660.1146669366055
 21
302.3712631759209
 31
0.0
  0
LINE
  5
A9
330
1F
100
AcDbEntity
  8
D6
  6
Continuous2
 62
   132
420
    49344
 60
     1
370
    -3
100
AcDbLine
 10
-626.1146669366055
 20
302.0382631759209
 30
0.0
 11
-624.1146669366055
 21
302.3712631759209
 31
0.0
  0
LINE
  5
AA
330
1F
100
AcDbEntity
  8
D6
  6
Continuous2
 62
   132
420
    49344
 60
     1
370
    -3
100
AcDbLine
 10
-626.1146669366055
 20
302.7042631759209
 30
0.0
 11
-624.1146669366055
 21
302.3712631759209
 31
0.0
  0
TEXT
  5
AB
330
1F
100
AcDbEntity
  8
D6
  6
Continuous2
 62
   132
420
    49344
 60
     1
370
    -3
100
AcDbText
 10
-643.2146669366056
 20
301.3712631759209
 30
0.0
 40
2.0
  1
36
 41
0.5
  7
MCStick_A0.500000_S0.000000
100
AcDbText
  0
LINE
  5
AD
330
1F
100
AcDbEntity
  8
D6
  6
Continuous2
 62
   132
420
    49344
 60
     1
370
    -3
100
AcDbLine
 10
-638.0146669366055
 20
302.3712631759209
 30
0.0
 11
-624.1146669366055
 21
302.3712631759209
 31
0.0
  0
LINE
  5
AE
330
1F
100
AcDbEntity
  8
D6
  6
Continuous2
 62
   132
420
    49344
 60
     1
370
    -3
100
AcDbLine
 10
-658.1146669366055
 20
302.7042631759209
 30
0.0
 11
-660.1146669366055
 21
302.3712631759209
 31
0.0
  0
LINE
  5
AF
330
1F
100
AcDbEntity
  8
D6
  6
Continuous2
 62
   132
420
    49344
 60
     1
370
    -3
100
AcDbLine
 10
-658.1146669366055
 20
302.0382631759209
 30
0.0
 11
-660.1146669366055
 21
302.3712631759209
 31
0.0
  0
LINE
  5
B0
330
1F
100
AcDbEntity
  8
D6
  6
Continuous2
 62
   132
420
    49344
 60
     1
370
    -3
100
AcDbLine
 10
-626.1146669366055
 20
302.0382631759209
 30
0.0
 11
-624.1146669366055
 21
302.3712631759209
 31
0.0
  0
LINE
  5
B1
330
1F
100
AcDbEntity
  8
D6
  6
Continuous2
 62
   132
420
    49344
 60
     1
370
    -3
100
AcDbLine
 10
-626.1146669366055
 20
302.7042631759209
 30
0.0
 11
-624.1146669366055
 21
302.3712631759209
 31
0.0
  0
LINE
  5
B2
330
1F
100
AcDbEntity
  8
D6
  6
Continuous2
 62
   132
420
    49344
 60
     1
370
    -3
100
AcDbLine
 10
-624.1146669366055
 20
301.3712631759209
 30
0.0
 11
-624.1146669366055
 21
308.3120960199772
 31
0.0
  0
LINE
  5
B3
330
1F
100
AcDbEntity
  8
D6
  6
Continuous2
 62
   132
420
    49344
 60
     1
370
    -3
100
AcDbLine
 10
-658.1146669366055
 20
302.7042631759209
 30
0.0
 11
-660.1146669366055
 21
302.3712631759209
 31
0.0
  0
LINE
  5
B4
330
1F
100
AcDbEntity
  8
D6
  6
Continuous2
 62
   132
420
    49344
 60
     1
370
    -3
100
AcDbLine
 10
-658.1146669366055
 20
302.0382631759209
 30
0.0
 11
-660.1146669366055
 21
302.3712631759209
 31
0.0
  0
LINE
  5
B5
330
1F
100
AcDbEntity
  8
D6
  6
Continuous2
 62
   132
420
    49344
 60
     1
370
    -3
100
AcDbLine
 10
-626.1146669366055
 20
302.0382631759209
 30
0.0
 11
-624.1146669366055
 21
302.3712631759209
 31
0.0
  0
LINE
  5
B6
330
1F
100
AcDbEntity
  8
D6
  6
Continuous2
 62
   132
420
    49344
 60
     1
370
    -3
100
AcDbLine
 10
-626.1146669366055
 20
302.7042631759209
 30
0.0
 11
-624.1146669366055
 21
302.3712631759209
 31
0.0
  0
LINE
  5
B7
330
1F
100
AcDbEntity
  8
Section H
  6
Continuous2
 62
     1
420
 16711680
 60
     1
370
    -3
100
AcDbLine
 10
-642.1146669366055
 20
340.8120960199772
 30
0.0
 11
-642.1146669366055
 21
337.7683704482735
 31
0.0
  0
LINE
  5
B8
330
1F
100
AcDbEntity
  8
Section H
  6
Continuous2
 62
     1
420
 16711680
 60
     1
370
    -3
100
AcDbLine
 10
-638.5432369366056
 20
340.8120960199772
 30
0.0
 11
-638.5432369366056
 21
329.3120960199772
 31
0.0
  0
LINE
  5
B9
330
1F
100
AcDbEntity
  8
Section H
  6
Continuous2
 62
     1
420
 16711680
 60
     1
370
    -3
100
AcDbLine
 10
-634.9718069366055
 20
340.8120960199772
 30
0.0
 11
-634.9718069366055
 21
329.3120960199772
 31
0.0
  0
LINE
  5
BA
330
1F
100
AcDbEntity
  8
Section H
  6
Continuous2
 62
     1
420
 16711680
 60
     1
370
    -3
100
AcDbLine
 10
-631.4003769366055
 20
340.8120960199772
 30
0.0
 11
-631.4003769366055
 21
329.3120960199772
 31
0.0
  0
LINE
  5
BB
330
1F
100
AcDbEntity
  8
Section H
  6
Continuous2
 62
     1
420
 16711680
 60
     1
370
    -3
100
AcDbLine
 10
-645.6860969366055
 20
340.8120960199772
 30
0.0
 11
-645.6860969366055
 21
329.3120960199772
 31
0.0
  0
LINE
  5
BC
330
1F
100
AcDbEntity
  8
Section H
  6
Continuous2
 62
     1
420
 16711680
 60
     1
370
    -3
100
AcDbLine
 10
-649.2575269366056
 20
340.8120960199772
 30
0.0
 11
-649.2575269366056
 21
329.3120960199772
 31
0.0
  0
LINE
  5
BD
330
1F
100
AcDbEntity
  8
Section H
  6
Continuous2
 62
     1
420
 16711680
 60
     1
370
    -3
100
AcDbLine
 10
-652.8289569366056
 20
340.8120960199772
 30
0.0
 11
-652.8289569366056
 21
329.3120960199772
 31
0.0
  0
LINE
  5
BE
330
1F
100
AcDbEntity
  8
Section H
  6
Continuous2
 62
     1
420
 16711680
 60
     1
370
    -3
100
AcDbLine
 10
-642.1146669366055
 20
329.3120960199772
 30
0.0
 11
-642.1146669366055
 21
332.355821591681
 31
0.0
  0
LINE
  5
BF
330
1F
100
AcDbEntity
  8
D6
  6
Continuous2
 62
   132
420
    49344
 60
     1
370
    -3
100
AcDbLine
 10
-608.9677052698578
 20
320.3120960199771
 30
0.0
 11
-620.6146669366055
 21
320.3120960199772
 31
0.0
  0
LINE
  5
C0
330
1F
100
AcDbEntity
  8
D6
  6
Continuous2
 62
   132
420
    49344
 60
     1
370
    -3
100
AcDbLine
 10
-610.3007052698578
 20
322.3120960199771
 30
0.0
 11
-609.9677052698578
 21
320.3120960199771
 31
0.0
  0
LINE
  5
C1
330
1F
100
AcDbEntity
  8
D6
  6
Continuous2
 62
   132
420
    49344
 60
     1
370
    -3
100
AcDbLine
 10
-609.6347052698578
 20
322.3120960199771
 30
0.0
 11
-609.9677052698578
 21
320.3120960199771
 31
0.0
  0
LINE
  5
C2
330
1F
100
AcDbEntity
  8
D6
  6
Continuous2
 62
   132
420
    49344
 60
     1
370
    -3
100
AcDbLine
 10
-609.6347052698578
 20
345.8120960199771
 30
0.0
 11
-609.9677052698578
 21
347.8120960199771
 31
0.0
  0
LINE
  5
C3
330
1F
100
AcDbEntity
  8
D6
  6
Continuous2
 62
   132
420
    49344
 60
     1
370
    -3
100
AcDbLine
 10
-610.3007052698578
 20
345.8120960199771
 30
0.0
 11
-609.9677052698578
 21
347.8120960199771
 31
0.0
  0
LINE
  5
C4
330
1F
100
AcDbEntity
  8
D6
  6
Continuous2
 62
   132
420
    49344
 60
     1
370
    -3
100
AcDbLine
 10
-609.9677052698578
 20
329.8361344815156
 30
0.0
 11
-609.9677052698578
 21
320.3120960199771
 31
0.0
  0
LINE
  5
C5
330
1F
100
AcDbEntity
  8
D6
  6
Continuous2
 62
   132
420
    49344
 60
     1
370
    -3
100
AcDbLine
 10
-610.3007052698578
 20
322.3120960199771
 30
0.0
 11
-609.9677052698578
 21
320.3120960199771
 31
0.0
  0
LINE
  5
C6
330
1F
100
AcDbEntity
  8
D6
  6
Continuous2
 62
   132
420
    49344
 60
     1
370
    -3
100
AcDbLine
 10
-609.6347052698578
 20
322.3120960199771
 30
0.0
 11
-609.9677052698578
 21
320.3120960199771
 31
0.0
  0
LINE
  5
C7
330
1F
100
AcDbEntity
  8
D6
  6
Continuous2
 62
   132
420
    49344
 60
     1
370
    -3
100
AcDbLine
 10
-609.6347052698578
 20
345.8120960199771
 30
0.0
 11
-609.9677052698578
 21
347.8120960199771
 31
0.0
  0
LINE
  5
C8
330
1F
100
AcDbEntity
  8
D6
  6
Continuous2
 62
   132
420
    49344
 60
     1
370
    -3
100
AcDbLine
 10
-610.3007052698578
 20
345.8120960199771
 30
0.0
 11
-609.9677052698578
 21
347.8120960199771
 31
0.0
  0
TEXT
  5
C9
330
1F
100
AcDbEntity
  8
D6
  6
Continuous2
 62
   132
420
    49344
 60
     1
370
    -3
100
AcDbText
 10
-613.365744485544
 20
333.0620960199771
 30
0.0
 40
2.0
  1
27 1/2"
 41
0.5
  7
MCStick_A0.500000_S0.000000
100
AcDbText
  0
LINE
  5
CA
330
1F
100
AcDbEntity
  8
D6
  6
Continuous2
 62
   132
420
    49344
 60
     1
370
    -3
100
AcDbLine
 10
-609.9677052698578
 20
338.2880575584387
 30
0.0
 11
-609.9677052698578
 21
347.8120960199771
 31
0.0
  0
LINE
  5
CB
330
1F
100
AcDbEntity
  8
D6
  6
Continuous2
 62
   132
420
    49344
 60
     1
370
    -3
100
AcDbLine
 10
-610.3007052698578
 20
322.3120960199771
 30
0.0
 11
-609.9677052698578
 21
320.3120960199771
 31
0.0
  0
LINE
  5
CC
330
1F
100
AcDbEntity
  8
D6
  6
Continuous2
 62
   132
420
    49344
 60
     1
370
    -3
100
AcDbLine
 10
-609.6347052698578
 20
322.3120960199771
 30
0.0
 11
-609.9677052698578
 21
320.3120960199771
 31
0.0
  0
LINE
  5
CD
330
1F
100
AcDbEntity
  8
D6
  6
Continuous2
 62
   132
420
    49344
 60
     1
370
    -3
100
AcDbLine
 10
-609.6347052698578
 20
345.8120960199771
 30
0.0
 11
-609.9677052698578
 21
347.8120960199771
 31
0.0
  0
LINE
  5
CE
330
1F
100
AcDbEntity
  8
D6
  6
Continuous2
 62
   132
420
    49344
 60
     1
370
    -3
100
AcDbLine
 10
-610.3007052698578
 20
345.8120960199771
 30
0.0
 11
-609.9677052698578
 21
347.8120960199771
 31
0.0
  0
LINE
  5
CF
330
1F
100
AcDbEntity
  8
D6
  6
Continuous2
 62
   132
420
    49344
 60
     1
370
    -3
100
AcDbLine
 10
-608.9677052698578
 20
347.8120960199771
 30
0.0
 11
-620.6146669366055
 21
347.8120960199772
 31
0.0
  0
LINE
  5
D0
330
1F
100
AcDbEntity
  8
D6
  6
Continuous2
 62
   132
420
    49344
 60
     1
370
    -3
100
AcDbLine
 10
-610.3007052698578
 20
322.3120960199771
 30
0.0
 11
-609.9677052698578
 21
320.3120960199771
 31
0.0
  0
LINE
  5
D1
330
1F
100
AcDbEntity
  8
D6
  6
Continuous2
 62
   132
420
    49344
 60
     1
370
    -3
100
AcDbLine
 10
-609.6347052698578
 20
322.3120960199771
 30
0.0
 11
-609.9677052698578
 21
320.3120960199771
 31
0.0
  0
LINE
  5
D2
330
1F
100
AcDbEntity
  8
D6
  6
Continuous2
 62
   132
420
    49344
 60
     1
370
    -3
100
AcDbLine
 10
-609.6347052698578
 20
345.8120960199771
 30
0.0
 11
-609.9677052698578
 21
347.8120960199771
 31
0.0
  0
LINE
  5
D3
330
1F
100
AcDbEntity
  8
D6
  6
Continuous2
 62
   132
420
    49344
 60
     1
370
    -3
100
AcDbLine
 10
-610.3007052698578
 20
345.8120960199771
 30
0.0
 11
-609.9677052698578
 21
347.8120960199771
 31
0.0
  0
LINE
  5
D4
330
1F
100
AcDbEntity
  8
Section K
  6
Continuous2
 62
    18
420
  4194304
 60
     1
370
    -3
100
AcDbLine
 10
-534.8321332419903
 20
309.1759676724819
 30
0.0
 11
-534.8321332419905
 21
302.1759676724819
 31
0.0
  0
LINE
  5
D5
330
1F
100
AcDbEntity
  8
Section K
  6
Continuous2
 62
    18
420
  4194304
 60
     1
370
    -3
100
AcDbLine
 10
-534.5821332419905
 20
309.1759676724819
 30
0.0
 11
-534.5821332419903
 21
302.1759676724819
 31
0.0
  0
LINE
  5
D6
330
1F
100
AcDbEntity
  8
Section K
  6
Continuous2
 62
    18
420
  4194304
 60
     1
370
    -3
100
AcDbLine
 10
-533.3321332419903
 20
309.1759676724818
 30
0.0
 11
-533.3321332419905
 21
302.1759676724819
 31
0.0
  0
LINE
  5
D7
330
1F
100
AcDbEntity
  8
Section L
  6
Continuous2
 62
   132
420
    49344
 60
     1
370
    -3
100
AcDbLine
 10
-534.5821332419904
 20
305.6759676724819
 30
0.0
 11
-533.3321332419905
 21
305.6759676724819
 31
0.0
  0
LINE
  5
D8
330
1F
100
AcDbEntity
  8
Section F
  6
Continuous2
 62
   132
420
    49344
 60
     1
370
    -3
100
AcDbLine
 10
-512.1288966499533
 20
305.1725597535593
 30
0.0
 11
-512.1288966499533
 21
296.1725597535593
 31
0.0
  0
LINE
  5
D9
330
1F
100
AcDbEntity
  8
Section F
  6
Continuous2
 62
   132
420
    49344
 60
     1
370
    -3
100
AcDbLine
 10
-511.8788966499533
 20
308.7401531533932
 30
0.0
 11
-511.8788966499535
 21
296.1725597535593
 31
0.0
  0
LINE
  5
DA
330
1F
100
AcDbEntity
  8
Section F
  6
Continuous2
 62
   132
420
    49344
 60
     1
370
    -3
100
AcDbLine
 10
-513.6288966499533
 20
308.7677808348706
 30
0.0
 11
-513.6288966499533
 21
296.1725597535592
 31
0.0
  0
LINE
  5
DB
330
1F
100
AcDbEntity
  8
Section F
  6
Continuous2
 62
   132
420
    49344
 60
     1
370
    -3
100
AcDbLine
 10
-513.378896649953
 20
296.1725597535592
 30
0.0
 11
-513.3788966499533
 21
305.1725597535593
 31
0.0
  0
LINE
  5
DC
330
1F
100
AcDbEntity
  8
Section F
  6
Continuous2
 62
   132
420
    49344
 60
     1
370
    -3
100
AcDbLine
 10
-513.6288966499533
 20
295.1725597535592
 30
0.0
 11
-511.8788966499534
 21
295.1725597535593
 31
0.0
  0
LINE
  5
DD
330
1F
100
AcDbEntity
  8
Section F
  6
Continuous2
 62
   132
420
    49344
 60
     1
370
    -3
100
AcDbLine
 10
-512.2930671373389
 20
333.8274027291422
 30
0.0
 11
-512.2930671373388
 21
324.7598093293085
 31
0.0
  0
LINE
  5
DE
330
1F
100
AcDbEntity
  8
Section F
  6
Continuous2
 62
   132
420
    49344
 60
     1
370
    -3
100
AcDbLine
 10
-514.0430671373389
 20
333.8274027291424
 30
0.0
 11
-514.0430671373388
 21
324.7321816478311
 31
0.0
  0
LINE
  5
DF
330
1F
100
AcDbEntity
  8
Section Q
  6
Continuous2
 62
   132
420
    49344
 60
     1
370
    -3
100
AcDbLine
 10
-500.1617813863886
 20
328.3794570781387
 30
0.0
 11
-487.508892372937
 21
328.379457078139
 31
0.0
  0
LINE
  5
E0
330
1F
100
AcDbEntity
  8
Section Q
  6
Continuous2
 62
   132
420
    49344
 60
     1
370
    -3
100
AcDbLine
 10
-500.1894090678658
 20
330.1294570781388
 30
0.0
 11
-487.508892372937
 21
330.129457078139
 31
0.0
  0
LINE
  5
E1
330
1F
100
AcDbEntity
  8
Section Q
  6
Continuous2
 62
   132
420
    49344
 60
     1
370
    -3
100
AcDbLine
 10
-493.008892372937
 20
329.8794570781389
 30
0.0
 11
-487.508892372937
 21
329.8794570781389
 31
0.0
  0
LINE
  5
E2
330
1F
100
AcDbEntity
  8
Section Q
  6
Continuous2
 62
   132
420
    49344
 60
     1
370
    -3
100
AcDbLine
 10
-487.508892372937
 20
328.6294570781389
 30
0.0
 11
-493.008892372937
 21
328.6294570781389
 31
0.0
  0
LINE
  5
E3
330
1F
100
AcDbEntity
  8
Section Q
  6
Continuous2
 62
   132
420
    49344
 60
     1
370
    -3
100
AcDbLine
 10
-487.383892372937
 20
330.2544570781389
 30
0.0
 11
-487.883892372937
 21
330.2544570781389
 31
0.0
  0
LINE
  5
E4
330
1F
100
AcDbEntity
  8
Section L
  6
Continuous2
 62
   132
420
    49344
 60
     1
370
    -3
100
AcDbLine
 10
-533.0821332419903
 20
300.4124614400974
 30
0.0
 11
-533.0821332419904
 21
302.1759676724819
 31
0.0
  0
LINE
  5
E5
330
1F
100
AcDbEntity
  8
Section L
  6
Continuous2
 62
   132
420
    49344
 60
     1
370
    -3
100
AcDbLine
 10
-534.8321332419905
 20
300.3848337586201
 30
0.0
 11
-534.8321332419905
 21
302.1759676724819
 31
0.0
  0
LINE
  5
E6
330
1F
100
AcDbEntity
  8
Section L
  6
Continuous2
 62
   132
420
    49344
 60
     1
370
    -3
100
AcDbLine
 10
-534.8321332419905
 20
311.3562184263818
 30
0.0
 11
-534.8321332419904
 21
309.1759676724819
 31
0.0
  0
LINE
  5
E7
330
1F
100
AcDbEntity
  8
Section L
  6
Continuous2
 62
   132
420
    49344
 60
     1
370
    -3
100
AcDbLine
 10
-533.0821332419905
 20
311.3285907449043
 30
0.0
 11
-533.0821332419903
 21
302.175967672482
 31
0.0
  0
LINE
  5
E8
330
1F
100
AcDbEntity
  8
Section L
  6
Continuous2
 62
   132
420
    49344
 60
     1
370
    -3
100
AcDbLine
 10
-534.5821332419904
 20
306.6759676724819
 30
0.0
 11
-533.3321332419905
 21
306.6759676724819
 31
0.0
  0
LINE
  5
E9
330
1F
100
AcDbEntity
  8
Section L
  6
Continuous2
 62
   132
420
    49344
 60
     1
370
    -3
100
AcDbLine
 10
-534.5821332419904
 20
307.6759676724819
 30
0.0
 11
-533.3321332419905
 21
307.6759676724819
 31
0.0
  0
LINE
  5
EA
330
1F
100
AcDbEntity
  8
Section L
  6
Continuous2
 62
   132
420
    49344
 60
     1
370
    -3
100
AcDbLine
 10
-534.8321332419907
 20
305.9259676724819
 30
0.0
 11
-533.0821332419905
 21
305.9259676724818
 31
0.0
  0
LINE
  5
EB
330
1F
100
AcDbEntity
  8
Section L
  6
Continuous2
 62
   132
420
    49344
 60
     1
370
    -3
100
AcDbLine
 10
-534.8321332419907
 20
305.6759676724819
 30
0.0
 11
-533.0821332419905
 21
305.6759676724818
 31
0.0
  0
LINE
  5
EC
330
1F
100
AcDbEntity
  8
Section L
  6
Continuous2
 62
   132
420
    49344
 60
     1
370
    -3
100
AcDbLine
 10
-534.8321332419907
 20
305.9259676724819
 30
0.0
 11
-533.0821332419905
 21
305.9259676724818
 31
0.0
  0
LINE
  5
ED
330
1F
100
AcDbEntity
  8
Section K
  6
Continuous2
 62
    18
420
  4194304
 60
     1
370
    -3
100
AcDbLine
 10
-532.7571223683201
 20
300.2509676724819
 30
0.0
 11
-532.7571223683201
 21
296.2653277435439
 31
0.0
  0
LINE
  5
EE
330
1F
100
AcDbEntity
  8
Section K
  6
Continuous2
 62
    18
420
  4194304
 60
     1
370
    -3
100
AcDbLine
 10
-514.408892372937
 20
304.3544679518092
 30
0.0
 11
-517.1651971569544
 21
304.3544679518092
 31
0.0
  0
LINE
  5
EF
330
1F
100
AcDbEntity
  8
Section K
  6
Continuous2
 62
    18
420
  4194304
 60
     1
370
    -3
100
AcDbLine
 10
-492.753885776283
 20
304.7975597535593
 30
0.0
 11
-492.753885776283
 21
308.6535630469024
 31
0.0
  0
LINE
  5
F0
330
1F
100
AcDbEntity
  8
Section K
  6
Continuous2
 62
    18
420
  4194304
 60
     1
370
    -3
100
AcDbLine
 10
-470.3390110535549
 20
303.2544462044936
 30
0.0
 11
-464.4674145923261
 21
303.2544462044936
 31
0.0
  0
LINE
  5
F1
330
1F
100
AcDbEntity
  8
Section Q
  6
Continuous2
 62
   132
420
    49344
 60
     1
370
    -3
100
AcDbLine
 10
-242.7845985956092
 20
291.0337430546332
 30
0.0
 11
-244.6072953205954
 21
292.9708691704257
 31
0.0
  0
LINE
  5
F2
330
1F
100
AcDbEntity
  8
Section Q
  6
Continuous2
 62
   132
420
    49344
 60
     1
370
    -3
100
AcDbLine
 10
-242.5370429927121
 20
292.2221441758352
 30
0.0
 11
-243.1272330153306
 21
291.3978881554133
 31
0.0
  0
LINE
  5
F3
330
1F
100
AcDbEntity
  8
Section Q
  6
Continuous2
 62
   132
420
    49344
 60
     1
370
    -3
100
AcDbLine
 10
-242.3018097241015
 20
291.9864445590795
 30
0.0
 11
-243.1272330153306
 21
291.3978881554133
 31
0.0
  0
LINE
  5
F4
330
1F
100
AcDbEntity
  8
Section Q
  6
Continuous2
 62
   132
420
    49344
 60
     1
370
    -3
100
AcDbLine
 10
-242.3018097241015
 20
315.5515457621304
 30
0.0
 11
-243.1272330153306
 21
316.1401021657966
 31
0.0
  0
LINE
  5
F5
330
1F
100
AcDbEntity
  8
Section Q
  6
Continuous2
 62
   132
420
    49344
 60
     1
370
    -3
100
AcDbLine
 10
-242.5370429927122
 20
315.3158461453747
 30
0.0
 11
-243.1272330153306
 21
316.1401021657966
 31
0.0
  0
ARC
  5
F6
330
1F
100
AcDbEntity
  8
Section Q
  6
Continuous2
 62
   132
420
    49344
 60
     1
370
    -3
100
AcDbCircle
 10
-254.7675573282324
 20
303.768995160605
 30
0.0
 40
16.98650754697488
100
AcDbArc
 50
313.2567535156943
 51
357.2037357329224
  0
LINE
  5
F7
330
1F
100
AcDbEntity
  8
Section Q
  6
Continuous2
 62
   132
420
    49344
 60
     1
370
    -3
100
AcDbLine
 10
-242.5370429927121
 20
292.2221441758352
 30
0.0
 11
-243.1272330153306
 21
291.3978881554133
 31
0.0
  0
LINE
  5
F8
330
1F
100
AcDbEntity
  8
Section Q
  6
Continuous2
 62
   132
420
    49344
 60
     1
370
    -3
100
AcDbLine
 10
-242.3018097241015
 20
291.9864445590795
 30
0.0
 11
-243.1272330153306
 21
291.3978881554133
 31
0.0
  0
LINE
  5
F9
330
1F
100
AcDbEntity
  8
Section Q
  6
Continuous2
 62
   132
420
    49344
 60
     1
370
    -3
100
AcDbLine
 10
-242.3018097241015
 20
315.5515457621304
 30
0.0
 11
-243.1272330153306
 21
316.1401021657966
 31
0.0
  0
LINE
  5
FA
330
1F
100
AcDbEntity
  8
Section Q
  6
Continuous2
 62
   132
420
    49344
 60
     1
370
    -3
100
AcDbLine
 10
-242.5370429927122
 20
315.3158461453747
 30
0.0
 11
-243.1272330153306
 21
316.1401021657966
 31
0.0
  0
TEXT
  5
FB
330
1F
100
AcDbEntity
  8
Section Q
  6
Continuous2
 62
   132
420
    49344
 60
     1
370
    -3
100
AcDbText
 10
-239.5445301734144
 20
303.268995160605
 30
0.0
 40
1.0
  1
93.49°
 41
0.625
  7
MCStick_A0.625000_S0.000000
100
AcDbText
  0
ARC
  5
FD
330
1F
100
AcDbEntity
  8
Section Q
  6
Continuous2
 62
   132
420
    49344
 60
     1
370
    -3
100
AcDbCircle
 10
-254.7675573282324
 20
303.768995160605
 30
0.0
 40
16.98650754697488
100
AcDbArc
 50
2.796264267078342
 51
46.74324648430586
  0
LINE
  5
FE
330
1F
100
AcDbEntity
  8
Section Q
  6
Continuous2
 62
   132
420
    49344
 60
     1
370
    -3
100
AcDbLine
 10
-242.5370429927121
 20
292.2221441758352
 30
0.0
 11
-243.1272330153306
 21
291.3978881554133
 31
0.0
  0
LINE
  5
FF
330
1F
100
AcDbEntity
  8
Section Q
  6
Continuous2
 62
   132
420
    49344
 60
     1
370
    -3
100
AcDbLine
 10
-242.3018097241015
 20
291.9864445590795
 30
0.0
 11
-243.1272330153306
 21
291.3978881554133
 31
0.0
  0
LINE
  5
100
330
1F
100
AcDbEntity
  8
Section Q
  6
Continuous2
 62
   132
420
    49344
 60
     1
370
    -3
100
AcDbLine
 10
-242.3018097241015
 20
315.5515457621304
 30
0.0
 11
-243.1272330153306
 21
316.1401021657966
 31
0.0
  0
LINE
  5
101
330
1F
100
AcDbEntity
  8
Section Q
  6
Continuous2
 62
   132
420
    49344
 60
     1
370
    -3
100
AcDbLine
 10
-242.5370429927122
 20
315.3158461453747
 30
0.0
 11
-243.1272330153306
 21
316.1401021657966
 31
0.0
  0
LINE
  5
102
330
1F
100
AcDbEntity
  8
Section Q
  6
Continuous2
 62
   132
420
    49344
 60
     1
370
    -3
100
AcDbLine
 10
-242.7845985956092
 20
316.5042472665767
 30
0.0
 11
-244.6072953205954
 21
314.5671211507843
 31
0.0
  0
LINE
  5
103
330
1F
100
AcDbEntity
  8
Section Q
  6
Continuous2
 62
   132
420
    49344
 60
     1
370
    -3
100
AcDbLine
 10
-242.5370429927121
 20
292.2221441758352
 30
0.0
 11
-243.1272330153306
 21
291.3978881554133
 31
0.0
  0
LINE
  5
104
330
1F
100
AcDbEntity
  8
Section Q
  6
Continuous2
 62
   132
420
    49344
 60
     1
370
    -3
100
AcDbLine
 10
-242.3018097241015
 20
291.9864445590795
 30
0.0
 11
-243.1272330153306
 21
291.3978881554133
 31
0.0
  0
LINE
  5
105
330
1F
100
AcDbEntity
  8
Section Q
  6
Continuous2
 62
   132
420
    49344
 60
     1
370
    -3
100
AcDbLine
 10
-242.3018097241015
 20
315.5515457621304
 30
0.0
 11
-243.1272330153306
 21
316.1401021657966
 31
0.0
  0
LINE
  5
106
330
1F
100
AcDbEntity
  8
Section Q
  6
Continuous2
 62
   132
420
    49344
 60
     1
370
    -3
100
AcDbLine
 10
-242.5370429927122
 20
315.3158461453747
 30
0.0
 11
-243.1272330153306
 21
316.1401021657966
 31
0.0
  0
LINE
  5
107
330
1F
100
AcDbEntity
  8
Section Q
  6
Continuous2
 62
   132
420
    49344
 60
     1
370
    -3
100
AcDbLine
 10
-189.3305737884266
 20
312.0544262610708
 30
0.0
 11
-199.5925847957917
 21
323.1849370864311
 31
0.0
  0
LINE
  5
108
330
1F
100
AcDbEntity
  8
Section Q
  6
Continuous2
 62
   132
420
    49344
 60
     1
370
    -3
100
AcDbLine
 10
-190.2918422489393
 20
311.6217772152802
 30
0.0
 11
-189.6694943227174
 21
312.4220304931412
 31
0.0
  0
LINE
  5
109
330
1F
100
AcDbEntity
  8
Section Q
  6
Continuous2
 62
   132
420
    49344
 60
     1
370
    -3
100
AcDbLine
 10
-190.517563324777
 20
311.8666016338391
 30
0.0
 11
-189.6694943227174
 21
312.4220304931412
 31
0.0
  0
LINE
  5
10A
330
1F
100
AcDbEntity
  8
Section Q
  6
Continuous2
 62
   132
420
    49344
 60
     1
370
    -3
100
AcDbLine
 10
-189.5375517008725
 20
312.3172114166807
 30
0.0
 11
-188.9152037746505
 21
313.1174646945416
 31
0.0
  0
LINE
  5
10B
330
1F
100
AcDbEntity
  8
Section Q
  6
Continuous2
 62
   132
420
    49344
 60
     1
370
    -3
100
AcDbLine
 10
-189.7632727767101
 20
312.5620358352395
 30
0.0
 11
-188.9152037746505
 21
313.1174646945416
 31
0.0
  0
LINE
  5
10C
330
1F
100
AcDbEntity
  8
Section Q
  6
Continuous2
 62
   132
420
    49344
 60
     1
370
    -3
100
AcDbLine
 10
-191.1399112509989
 20
311.0663483559781
 30
0.0
 11
-189.6694943227174
 21
312.4220304931412
 31
0.0
  0
LINE
  5
10D
330
1F
100
AcDbEntity
  8
Section Q
  6
Continuous2
 62
   132
420
    49344
 60
     1
370
    -3
100
AcDbLine
 10
-190.2918422489393
 20
311.6217772152802
 30
0.0
 11
-189.6694943227174
 21
312.4220304931412
 31
0.0
  0
LINE
  5
10E
330
1F
100
AcDbEntity
  8
Section Q
  6
Continuous2
 62
   132
420
    49344
 60
     1
370
    -3
100
AcDbLine
 10
-190.517563324777
 20
311.8666016338391
 30
0.0
 11
-189.6694943227174
 21
312.4220304931412
 31
0.0
  0
LINE
  5
10F
330
1F
100
AcDbEntity
  8
Section Q
  6
Continuous2
 62
   132
420
    49344
 60
     1
370
    -3
100
AcDbLine
 10
-189.5375517008725
 20
312.3172114166807
 30
0.0
 11
-188.9152037746505
 21
313.1174646945416
 31
0.0
  0
LINE
  5
110
330
1F
100
AcDbEntity
  8
Section Q
  6
Continuous2
 62
   132
420
    49344
 60
     1
370
    -3
100
AcDbLine
 10
-189.7632727767101
 20
312.5620358352395
 30
0.0
 11
-188.9152037746505
 21
313.1174646945416
 31
0.0
  0
TEXT
  5
111
330
1F
100
AcDbEntity
  8
Section Q
  6
Continuous2
 62
   132
420
    49344
 60
     1
370
    -3
100
AcDbText
 10
-186.8283408689849
 20
312.2998113981224
 30
0.0
 40
1.0
  1
1.026
 41
0.625
  7
MCStick_A0.625000_S0.000000
100
AcDbText
  0
LINE
  5
112
330
1F
100
AcDbEntity
  8
Section Q
  6
Continuous2
 62
   132
420
    49344
 60
     1
370
    -3
100
AcDbLine
 10
-189.2597408689849
 20
312.7998113981224
 30
0.0
 11
-188.9152037746505
 21
313.1174646945416
 31
0.0
  0
LINE
  5
113
330
1F
100
AcDbEntity
  8
Section Q
  6
Continuous2
 62
   132
420
    49344
 60
     1
370
    -3
100
AcDbLine
 10
-189.2597408689849
 20
312.7998113981224
 30
0.0
 11
-187.2597408689849
 21
312.7998113981224
 31
0.0
  0
LINE
  5
114
330
1F
100
AcDbEntity
  8
Section Q
  6
Continuous2
 62
   132
420
    49344
 60
     1
370
    -3
100
AcDbLine
 10
-190.2918422489393
 20
311.6217772152802
 30
0.0
 11
-189.6694943227174
 21
312.4220304931412
 31
0.0
  0
LINE
  5
115
330
1F
100
AcDbEntity
  8
Section Q
  6
Continuous2
 62
   132
420
    49344
 60
     1
370
    -3
100
AcDbLine
 10
-190.517563324777
 20
311.8666016338391
 30
0.0
 11
-189.6694943227174
 21
312.4220304931412
 31
0.0
  0
LINE
  5
116
330
1F
100
AcDbEntity
  8
Section Q
  6
Continuous2
 62
   132
420
    49344
 60
     1
370
    -3
100
AcDbLine
 10
-189.5375517008725
 20
312.3172114166807
 30
0.0
 11
-188.9152037746505
 21
313.1174646945416
 31
0.0
  0
LINE
  5
117
330
1F
100
AcDbEntity
  8
Section Q
  6
Continuous2
 62
   132
420
    49344
 60
     1
370
    -3
100
AcDbLine
 10
-189.7632727767101
 20
312.5620358352395
 30
0.0
 11
-188.9152037746505
 21
313.1174646945416
 31
0.0
  0
LINE
  5
118
330
1F
100
AcDbEntity
  8
Section Q
  6
Continuous2
 62
   132
420
    49344
 60
     1
370
    -3
100
AcDbLine
 10
-188.5762832403598
 20
312.7498604624712
 30
0.0
 11
-191.027610682089
 21
315.4086499148591
 31
0.0
  0
LINE
  5
119
330
1F
100
AcDbEntity
  8
Section Q
  6
Continuous2
 62
   132
420
    49344
 60
     1
370
    -3
100
AcDbLine
 10
-190.2918422489393
 20
311.6217772152802
 30
0.0
 11
-189.6694943227174
 21
312.4220304931412
 31
0.0
  0
LINE
  5
11A
330
1F
100
AcDbEntity
  8
Section Q
  6
Continuous2
 62
   132
420
    49344
 60
     1
370
    -3
100
AcDbLine
 10
-190.517563324777
 20
311.8666016338391
 30
0.0
 11
-189.6694943227174
 21
312.4220304931412
 31
0.0
  0
LINE
  5
11B
330
1F
100
AcDbEntity
  8
Section Q
  6
Continuous2
 62
   132
420
    49344
 60
     1
370
    -3
100
AcDbLine
 10
-189.5375517008725
 20
312.3172114166807
 30
0.0
 11
-188.9152037746505
 21
313.1174646945416
 31
0.0
  0
LINE
  5
11C
330
1F
100
AcDbEntity
  8
Section Q
  6
Continuous2
 62
   132
420
    49344
 60
     1
370
    -3
100
AcDbLine
 10
-189.7632727767101
 20
312.5620358352395
 30
0.0
 11
-188.9152037746505
 21
313.1174646945416
 31
0.0
  0
LINE
  5
11D
330
1F
100
AcDbEntity
  8
Section Q
  6
Continuous2
 62
   132
420
    49344
 60
     1
370
    -3
100
AcDbLine
 10
171.198461929511
 20
321.0588129938017
 30
0.0
 11
165.9438049234613
 21
313.573607707633
 31
0.0
  0
LINE
  5
11E
330
1F
100
AcDbEntity
  8
Section Q
  6
Continuous2
 62
   132
420
    49344
 60
     1
370
    -3
100
AcDbLine
 10
169.9970553516551
 20
321.087873012462
 30
0.0
 11
170.9111801407139
 21
320.649583017107
 31
0.0
  0
LINE
  5
11F
330
1F
100
AcDbEntity
  8
Section Q
  6
Continuous2
 62
   132
420
    49344
 60
     1
370
    -3
100
AcDbLine
 10
170.188385022994
 20
321.3604201769406
 30
0.0
 11
170.9111801407139
 21
320.649583017107
 31
0.0
  0
LINE
  5
120
330
1F
100
AcDbEntity
  8
Section Q
  6
Continuous2
 62
   132
420
    49344
 60
     1
370
    -3
100
AcDbLine
 10
162.9558701262159
 20
326.4376870815556
 30
0.0
 11
162.0417453371571
 21
326.8759770769105
 31
0.0
  0
LINE
  5
121
330
1F
100
AcDbEntity
  8
Section Q
  6
Continuous2
 62
   132
420
    49344
 60
     1
370
    -3
100
AcDbLine
 10
162.764540454877
 20
326.165139917077
 30
0.0
 11
162.0417453371571
 21
326.8759770769105
 31
0.0
  0
LINE
  5
122
330
1F
100
AcDbEntity
  8
Section Q
  6
Continuous2
 62
   132
420
    49344
 60
     1
370
    -3
100
AcDbLine
 10
166.4764627389355
 20
323.7627800470088
 30
0.0
 11
170.9111801407139
 21
320.649583017107
 31
0.0
  0
LINE
  5
123
330
1F
100
AcDbEntity
  8
Section Q
  6
Continuous2
 62
   132
420
    49344
 60
     1
370
    -3
100
AcDbLine
 10
169.9970553516551
 20
321.087873012462
 30
0.0
 11
170.9111801407139
 21
320.649583017107
 31
0.0
  0
LINE
  5
124
330
1F
100
AcDbEntity
  8
Section Q
  6
Continuous2
 62
   132
420
    49344
 60
     1
370
    -3
100
AcDbLine
 10
170.188385022994
 20
321.3604201769406
 30
0.0
 11
170.9111801407139
 21
320.649583017107
 31
0.0
  0
LINE
  5
125
330
1F
100
AcDbEntity
  8
Section Q
  6
Continuous2
 62
   132
420
    49344
 60
     1
370
    -3
100
AcDbLine
 10
162.9558701262159
 20
326.4376870815556
 30
0.0
 11
162.0417453371571
 21
326.8759770769105
 31
0.0
  0
LINE
  5
126
330
1F
100
AcDbEntity
  8
Section Q
  6
Continuous2
 62
   132
420
    49344
 60
     1
370
    -3
100
AcDbLine
 10
162.764540454877
 20
326.165139917077
 30
0.0
 11
162.0417453371571
 21
326.8759770769105
 31
0.0
  0
TEXT
  5
127
330
1F
100
AcDbEntity
  8
Section Q
  6
Continuous2
 62
   132
420
    49344
 60
     1
370
    -3
100
AcDbText
 10
163.3281545689074
 20
321.2901070083269
 30
0.0
 40
1.0
  1
10.837
 41
0.625
  7
MCStick_A0.625000_S0.000000
100
AcDbText
  0
LINE
  5
128
330
1F
100
AcDbEntity
  8
Section Q
  6
Continuous2
 62
   132
420
    49344
 60
     1
370
    -3
100
AcDbLine
 10
166.4764627389355
 20
323.7627800470088
 30
0.0
 11
162.0417453371571
 21
326.8759770769105
 31
0.0
  0
LINE
  5
129
330
1F
100
AcDbEntity
  8
Section Q
  6
Continuous2
 62
   132
420
    49344
 60
     1
370
    -3
100
AcDbLine
 10
166.4764627389355
 20
323.7627800470088
 30
0.0
 11
169.2865153532211
 21
321.7901070083269
 31
0.0
  0
LINE
  5
12A
330
1F
100
AcDbEntity
  8
Section Q
  6
Continuous2
 62
   132
420
    49344
 60
     1
370
    -3
100
AcDbLine
 10
169.2865153532211
 20
321.7901070083269
 30
0.0
 11
167.2865153532211
 21
321.7901070083269
 31
0.0
  0
LINE
  5
12B
330
1F
100
AcDbEntity
  8
Section Q
  6
Continuous2
 62
   132
420
    49344
 60
     1
370
    -3
100
AcDbLine
 10
169.9970553516551
 20
321.087873012462
 30
0.0
 11
170.9111801407139
 21
320.649583017107
 31
0.0
  0
LINE
  5
12C
330
1F
100
AcDbEntity
  8
Section Q
  6
Continuous2
 62
   132
420
    49344
 60
     1
370
    -3
100
AcDbLine
 10
170.188385022994
 20
321.3604201769406
 30
0.0
 11
170.9111801407139
 21
320.649583017107
 31
0.0
  0
LINE
  5
12D
330
1F
100
AcDbEntity
  8
Section Q
  6
Continuous2
 62
   132
420
    49344
 60
     1
370
    -3
100
AcDbLine
 10
162.9558701262159
 20
326.4376870815556
 30
0.0
 11
162.0417453371571
 21
326.8759770769105
 31
0.0
  0
LINE
  5
12E
330
1F
100
AcDbEntity
  8
Section Q
  6
Continuous2
 62
   132
420
    49344
 60
     1
370
    -3
100
AcDbLine
 10
162.764540454877
 20
326.165139917077
 30
0.0
 11
162.0417453371571
 21
326.8759770769105
 31
0.0
  0
LINE
  5
12F
330
1F
100
AcDbEntity
  8
Section Q
  6
Continuous2
 62
   132
420
    49344
 60
     1
370
    -3
100
AcDbLine
 10
162.3290271259542
 20
327.2852070536052
 30
0.0
 11
157.7205159166313
 21
320.7204298615493
 31
0.0
  0
LINE
  5
130
330
1F
100
AcDbEntity
  8
Section Q
  6
Continuous2
 62
   132
420
    49344
 60
     1
370
    -3
100
AcDbLine
 10
169.9970553516551
 20
321.087873012462
 30
0.0
 11
170.9111801407139
 21
320.649583017107
 31
0.0
  0
LINE
  5
131
330
1F
100
AcDbEntity
  8
Section Q
  6
Continuous2
 62
   132
420
    49344
 60
     1
370
    -3
100
AcDbLine
 10
170.188385022994
 20
321.3604201769406
 30
0.0
 11
170.9111801407139
 21
320.649583017107
 31
0.0
  0
LINE
  5
132
330
1F
100
AcDbEntity
  8
Section Q
  6
Continuous2
 62
   132
420
    49344
 60
     1
370
    -3
100
AcDbLine
 10
162.9558701262159
 20
326.4376870815556
 30
0.0
 11
162.0417453371571
 21
326.8759770769105
 31
0.0
  0
LINE
  5
133
330
1F
100
AcDbEntity
  8
Section Q
  6
Continuous2
 62
   132
420
    49344
 60
     1
370
    -3
100
AcDbLine
 10
162.764540454877
 20
326.165139917077
 30
0.0
 11
162.0417453371571
 21
326.8759770769105
 31
0.0
  0
LINE
  5
134
330
1F
100
AcDbEntity
  8
Section Q
  6
Continuous2
 62
   132
420
    49344
 60
     1
370
    -3
100
AcDbLine
 10
521.7560649801623
 20
322.0082203584502
 30
0.0
 11
515.0263112739638
 21
316.0958456449074
 31
0.0
  0
LINE
  5
135
330
1F
100
AcDbEntity
  8
Section Q
  6
Continuous2
 62
   132
420
    49344
 60
     1
370
    -3
100
AcDbLine
 10
520.5953420690945
 20
322.3195795942574
 30
0.0
 11
521.3804368328899
 21
321.6782150630733
 31
0.0
  0
LINE
  5
136
330
1F
100
AcDbEntity
  8
Section Q
  6
Continuous2
 62
   132
420
    49344
 60
     1
370
    -3
100
AcDbLine
 10
520.8455104151778
 20
322.5393631209784
 30
0.0
 11
521.3804368328899
 21
321.6782150630733
 31
0.0
  0
LINE
  5
137
330
1F
100
AcDbEntity
  8
Section Q
  6
Continuous2
 62
   132
420
    49344
 60
     1
370
    -3
100
AcDbLine
 10
512.9291184775547
 20
331.5501871237107
 30
0.0
 11
512.1440237137592
 21
332.1915516548947
 31
0.0
  0
LINE
  5
138
330
1F
100
AcDbEntity
  8
Section Q
  6
Continuous2
 62
   132
420
    49344
 60
     1
370
    -3
100
AcDbLine
 10
512.6789501314713
 20
331.3304035969896
 30
0.0
 11
512.1440237137592
 21
332.1915516548947
 31
0.0
  0
LINE
  5
139
330
1F
100
AcDbEntity
  8
Section Q
  6
Continuous2
 62
   132
420
    49344
 60
     1
370
    -3
100
AcDbLine
 10
516.7622302733246
 20
326.9348833589841
 30
0.0
 11
521.3804368328899
 21
321.6782150630733
 31
0.0
  0
LINE
  5
13A
330
1F
100
AcDbEntity
  8
Section Q
  6
Continuous2
 62
   132
420
    49344
 60
     1
370
    -3
100
AcDbLine
 10
520.5953420690945
 20
322.3195795942574
 30
0.0
 11
521.3804368328899
 21
321.6782150630733
 31
0.0
  0
LINE
  5
13B
330
1F
100
AcDbEntity
  8
Section Q
  6
Continuous2
 62
   132
420
    49344
 60
     1
370
    -3
100
AcDbLine
 10
520.8455104151778
 20
322.5393631209784
 30
0.0
 11
521.3804368328899
 21
321.6782150630733
 31
0.0
  0
LINE
  5
13C
330
1F
100
AcDbEntity
  8
Section Q
  6
Continuous2
 62
   132
420
    49344
 60
     1
370
    -3
100
AcDbLine
 10
512.9291184775547
 20
331.5501871237107
 30
0.0
 11
512.1440237137592
 21
332.1915516548947
 31
0.0
  0
LINE
  5
13D
330
1F
100
AcDbEntity
  8
Section Q
  6
Continuous2
 62
   132
420
    49344
 60
     1
370
    -3
100
AcDbLine
 10
512.6789501314713
 20
331.3304035969896
 30
0.0
 11
512.1440237137592
 21
332.1915516548947
 31
0.0
  0
TEXT
  5
13E
330
1F
100
AcDbEntity
  8
Section Q
  6
Continuous2
 62
   132
420
    49344
 60
     1
370
    -3
100
AcDbText
 10
512.6312180318725
 20
324.3549059853119
 30
0.0
 40
1.0
  1
13.994
 41
0.625
  7
MCStick_A0.625000_S0.000000
100
AcDbText
  0
LINE
  5
13F
330
1F
100
AcDbEntity
  8
Section Q
  6
Continuous2
 62
   132
420
    49344
 60
     1
370
    -3
100
AcDbLine
 10
516.7622302733246
 20
326.9348833589841
 30
0.0
 11
512.1440237137592
 21
332.1915516548947
 31
0.0
  0
LINE
  5
140
330
1F
100
AcDbEntity
  8
Section Q
  6
Continuous2
 62
   132
420
    49344
 60
     1
370
    -3
100
AcDbLine
 10
516.7622302733246
 20
326.9348833589841
 30
0.0
 11
518.5895788161863
 21
324.8549059853119
 31
0.0
  0
LINE
  5
141
330
1F
100
AcDbEntity
  8
Section Q
  6
Continuous2
 62
   132
420
    49344
 60
     1
370
    -3
100
AcDbLine
 10
518.5895788161863
 20
324.8549059853119
 30
0.0
 11
516.5895788161863
 21
324.8549059853119
 31
0.0
  0
LINE
  5
142
330
1F
100
AcDbEntity
  8
Section Q
  6
Continuous2
 62
   132
420
    49344
 60
     1
370
    -3
100
AcDbLine
 10
520.5953420690945
 20
322.3195795942574
 30
0.0
 11
521.3804368328899
 21
321.6782150630733
 31
0.0
  0
LINE
  5
143
330
1F
100
AcDbEntity
  8
Section Q
  6
Continuous2
 62
   132
420
    49344
 60
     1
370
    -3
100
AcDbLine
 10
520.8455104151778
 20
322.5393631209784
 30
0.0
 11
521.3804368328899
 21
321.6782150630733
 31
0.0
  0
LINE
  5
144
330
1F
100
AcDbEntity
  8
Section Q
  6
Continuous2
 62
   132
420
    49344
 60
     1
370
    -3
100
AcDbLine
 10
512.9291184775547
 20
331.5501871237107
 30
0.0
 11
512.1440237137592
 21
332.1915516548947
 31
0.0
  0
LINE
  5
145
330
1F
100
AcDbEntity
  8
Section Q
  6
Continuous2
 62
   132
420
    49344
 60
     1
370
    -3
100
AcDbLine
 10
512.6789501314713
 20
331.3304035969896
 30
0.0
 11
512.1440237137592
 21
332.1915516548947
 31
0.0
  0
LINE
  5
146
330
1F
100
AcDbEntity
  8
Section Q
  6
Continuous2
 62
   132
420
    49344
 60
     1
370
    -3
100
AcDbLine
 10
512.5196518610315
 20
332.5215569502716
 30
0.0
 11
505.7898981548331
 21
326.6091822367288
 31
0.0
  0
LINE
  5
147
330
1F
100
AcDbEntity
  8
Section Q
  6
Continuous2
 62
   132
420
    49344
 60
     1
370
    -3
100
AcDbLine
 10
520.5953420690945
 20
322.3195795942574
 30
0.0
 11
521.3804368328899
 21
321.6782150630733
 31
0.0
  0
LINE
  5
148
330
1F
100
AcDbEntity
  8
Section Q
  6
Continuous2
 62
   132
420
    49344
 60
     1
370
    -3
100
AcDbLine
 10
520.8455104151778
 20
322.5393631209784
 30
0.0
 11
521.3804368328899
 21
321.6782150630733
 31
0.0
  0
LINE
  5
149
330
1F
100
AcDbEntity
  8
Section Q
  6
Continuous2
 62
   132
420
    49344
 60
     1
370
    -3
100
AcDbLine
 10
512.9291184775547
 20
331.5501871237107
 30
0.0
 11
512.1440237137592
 21
332.1915516548947
 31
0.0
  0
LINE
  5
14A
330
1F
100
AcDbEntity
  8
Section Q
  6
Continuous2
 62
   132
420
    49344
 60
     1
370
    -3
100
AcDbLine
 10
512.6789501314713
 20
331.3304035969896
 30
0.0
 11
512.1440237137592
 21
332.1915516548947
 31
0.0
  0
LINE
  5
14B
330
1F
100
AcDbEntity
  8
Section Q
  6
Continuous2
 62
   216
420
  8388736
 60
     1
370
    -3
100
AcDbLine
 10
772.7375815430772
 20
293.9176420869095
 30
0.0
 11
770.6163295252702
 21
293.9176420869096
 31
0.0
  0
LINE
  5
14C
330
1F
100
AcDbEntity
  8
Section Q
  6
Continuous2
 62
   216
420
  8388736
 60
     1
370
    -3
100
AcDbLine
 10
772.0710815430773
 20
294.9176420869095
 30
0.0
 11
772.2375815430772
 21
293.9176420869095
 31
0.0
  0
LINE
  5
14D
330
1F
100
AcDbEntity
  8
Section Q
  6
Continuous2
 62
   216
420
  8388736
 60
     1
370
    -3
100
AcDbLine
 10
772.4040815430774
 20
294.9176420869095
 30
0.0
 11
772.2375815430772
 21
293.9176420869095
 31
0.0
  0
LINE
  5
14E
330
1F
100
AcDbEntity
  8
Section Q
  6
Continuous2
 62
   216
420
  8388736
 60
     1
370
    -3
100
AcDbLine
 10
772.4040815430773
 20
329.5426420869095
 30
0.0
 11
772.2375815430772
 21
330.5426420869095
 31
0.0
  0
LINE
  5
14F
330
1F
100
AcDbEntity
  8
Section Q
  6
Continuous2
 62
   216
420
  8388736
 60
     1
370
    -3
100
AcDbLine
 10
772.0710815430772
 20
329.5426420869095
 30
0.0
 11
772.2375815430772
 21
330.5426420869095
 31
0.0
  0
LINE
  5
150
330
1F
100
AcDbEntity
  8
Section Q
  6
Continuous2
 62
   216
420
  8388736
 60
     1
370
    -3
100
AcDbLine
 10
772.2375815430772
 20
298.2124411064231
 30
0.0
 11
772.2375815430772
 21
293.9176420869095
 31
0.0
  0
LINE
  5
151
330
1F
100
AcDbEntity
  8
Section Q
  6
Continuous2
 62
   216
420
  8388736
 60
     1
370
    -3
100
AcDbLine
 10
772.0710815430773
 20
294.9176420869095
 30
0.0
 11
772.2375815430772
 21
293.9176420869095
 31
0.0
  0
LINE
  5
152
330
1F
100
AcDbEntity
  8
Section Q
  6
Continuous2
 62
   216
420
  8388736
 60
     1
370
    -3
100
AcDbLine
 10
772.4040815430774
 20
294.9176420869095
 30
0.0
 11
772.2375815430772
 21
293.9176420869095
 31
0.0
  0
LINE
  5
153
330
1F
100
AcDbEntity
  8
Section Q
  6
Continuous2
 62
   216
420
  8388736
 60
     1
370
    -3
100
AcDbLine
 10
772.4040815430773
 20
329.5426420869095
 30
0.0
 11
772.2375815430772
 21
330.5426420869095
 31
0.0
  0
LINE
  5
154
330
1F
100
AcDbEntity
  8
Section Q
  6
Continuous2
 62
   216
420
  8388736
 60
     1
370
    -3
100
AcDbLine
 10
772.0710815430772
 20
329.5426420869095
 30
0.0
 11
772.2375815430772
 21
330.5426420869095
 31
0.0
  0
TEXT
  5
155
330
1F
100
AcDbEntity
  8
Section Q
  6
Continuous2
 62
   216
420
  8388736
 60
     1
370
    -3
100
AcDbText
 10
770.3172384058223
 20
298.7568218756538
 30
0.0
 40
1.0
  1
36.625
 41
0.625
  7
MCStick_A0.625000_S0.000000
100
AcDbText
  0
LINE
  5
156
330
1F
100
AcDbEntity
  8
Section Q
  6
Continuous2
 62
   216
420
  8388736
 60
     1
370
    -3
100
AcDbLine
 10
772.2375815430772
 20
300.3012026448846
 30
0.0
 11
772.2375815430772
 21
330.5426420869095
 31
0.0
  0
LINE
  5
157
330
1F
100
AcDbEntity
  8
Section Q
  6
Continuous2
 62
   216
420
  8388736
 60
     1
370
    -3
100
AcDbLine
 10
772.0710815430773
 20
294.9176420869095
 30
0.0
 11
772.2375815430772
 21
293.9176420869095
 31
0.0
  0
LINE
  5
158
330
1F
100
AcDbEntity
  8
Section Q
  6
Continuous2
 62
   216
420
  8388736
 60
     1
370
    -3
100
AcDbLine
 10
772.4040815430774
 20
294.9176420869095
 30
0.0
 11
772.2375815430772
 21
293.9176420869095
 31
0.0
  0
LINE
  5
159
330
1F
100
AcDbEntity
  8
Section Q
  6
Continuous2
 62
   216
420
  8388736
 60
     1
370
    -3
100
AcDbLine
 10
772.4040815430773
 20
329.5426420869095
 30
0.0
 11
772.2375815430772
 21
330.5426420869095
 31
0.0
  0
LINE
  5
15A
330
1F
100
AcDbEntity
  8
Section Q
  6
Continuous2
 62
   216
420
  8388736
 60
     1
370
    -3
100
AcDbLine
 10
772.0710815430772
 20
329.5426420869095
 30
0.0
 11
772.2375815430772
 21
330.5426420869095
 31
0.0
  0
LINE
  5
15B
330
1F
100
AcDbEntity
  8
Section Q
  6
Continuous2
 62
   216
420
  8388736
 60
     1
370
    -3
100
AcDbLine
 10
772.7375815430772
 20
330.5426420869095
 30
0.0
 11
770.6163295252702
 21
330.5426420869096
 31
0.0
  0
LINE
  5
15C
330
1F
100
AcDbEntity
  8
Section Q
  6
Continuous2
 62
   216
420
  8388736
 60
     1
370
    -3
100
AcDbLine
 10
772.0710815430773
 20
294.9176420869095
 30
0.0
 11
772.2375815430772
 21
293.9176420869095
 31
0.0
  0
LINE
  5
15D
330
1F
100
AcDbEntity
  8
Section Q
  6
Continuous2
 62
   216
420
  8388736
 60
     1
370
    -3
100
AcDbLine
 10
772.4040815430774
 20
294.9176420869095
 30
0.0
 11
772.2375815430772
 21
293.9176420869095
 31
0.0
  0
LINE
  5
15E
330
1F
100
AcDbEntity
  8
Section Q
  6
Continuous2
 62
   216
420
  8388736
 60
     1
370
    -3
100
AcDbLine
 10
772.4040815430773
 20
329.5426420869095
 30
0.0
 11
772.2375815430772
 21
330.5426420869095
 31
0.0
  0
LINE
  5
15F
330
1F
100
AcDbEntity
  8
Section Q
  6
Continuous2
 62
   216
420
  8388736
 60
     1
370
    -3
100
AcDbLine
 10
772.0710815430772
 20
329.5426420869095
 30
0.0
 11
772.2375815430772
 21
330.5426420869095
 31
0.0
  0
LINE
  5
160
330
1F
100
AcDbEntity
  8
Section Q
  6
Continuous2
 62
   216
420
  8388736
 60
     1
370
    -3
100
AcDbLine
 10
768.2712703149281
 20
298.0507143774216
 30
0.0
 11
768.989078553405
 21
297.1594580515803
 31
0.0
  0
LINE
  5
161
330
1F
100
AcDbEntity
  8
Section Q
  6
Continuous2
 62
   216
420
  8388736
 60
     1
370
    -3
100
AcDbLine
 10
769.2592757058778
 20
298.4182298158105
 30
0.0
 11
768.5848958008606
 21
297.6613057815052
 31
0.0
  0
LINE
  5
162
330
1F
100
AcDbEntity
  8
Section Q
  6
Continuous2
 62
   216
420
  8388736
 60
     1
370
    -3
100
AcDbLine
 10
769.4681502795089
 20
298.1588836909303
 30
0.0
 11
768.5848958008606
 21
297.6613057815052
 31
0.0
  0
LINE
  5
163
330
1F
100
AcDbEntity
  8
Section Q
  6
Continuous2
 62
   216
420
  8388736
 60
     1
370
    -3
100
AcDbLine
 10
787.5898222522454
 20
312.7538829743618
 30
0.0
 11
788.2642021572625
 21
313.5108070086672
 31
0.0
  0
LINE
  5
164
330
1F
100
AcDbEntity
  8
Section Q
  6
Continuous2
 62
   216
420
  8388736
 60
     1
370
    -3
100
AcDbLine
 10
787.3809476786142
 20
313.0132290992421
 30
0.0
 11
788.2642021572625
 21
313.5108070086672
 31
0.0
  0
LINE
  5
165
330
1F
100
AcDbEntity
  8
Section Q
  6
Continuous2
 62
   216
420
  8388736
 60
     1
370
    -3
100
AcDbLine
 10
769.4624327550471
 20
298.3680645859248
 30
0.0
 11
768.5848958008606
 21
297.6613057815052
 31
0.0
  0
LINE
  5
166
330
1F
100
AcDbEntity
  8
Section Q
  6
Continuous2
 62
   216
420
  8388736
 60
     1
370
    -3
100
AcDbLine
 10
769.2592757058778
 20
298.4182298158105
 30
0.0
 11
768.5848958008606
 21
297.6613057815052
 31
0.0
  0
LINE
  5
167
330
1F
100
AcDbEntity
  8
Section Q
  6
Continuous2
 62
   216
420
  8388736
 60
     1
370
    -3
100
AcDbLine
 10
769.4681502795089
 20
298.1588836909303
 30
0.0
 11
768.5848958008606
 21
297.6613057815052
 31
0.0
  0
LINE
  5
168
330
1F
100
AcDbEntity
  8
Section Q
  6
Continuous2
 62
   216
420
  8388736
 60
     1
370
    -3
100
AcDbLine
 10
787.5898222522454
 20
312.7538829743618
 30
0.0
 11
788.2642021572625
 21
313.5108070086672
 31
0.0
  0
LINE
  5
169
330
1F
100
AcDbEntity
  8
Section Q
  6
Continuous2
 62
   216
420
  8388736
 60
     1
370
    -3
100
AcDbLine
 10
787.3809476786142
 20
313.0132290992421
 30
0.0
 11
788.2642021572625
 21
313.5108070086672
 31
0.0
  0
TEXT
  5
16A
330
1F
100
AcDbEntity
  8
Section Q
  6
Continuous2
 62
   216
420
  8388736
 60
     1
370
    -3
100
AcDbText
 10
768.7390001028848
 20
298.8320433897869
 30
0.0
 40
1.0
  1
25.268
 41
0.625
  7
MCStick_A0.625000_S0.000000
100
AcDbText
  0
LINE
  5
16B
330
1F
100
AcDbEntity
  8
Section Q
  6
Continuous2
 62
   216
420
  8388736
 60
     1
370
    -3
100
AcDbLine
 10
771.8562537252324
 20
300.2960221936489
 30
0.0
 11
788.2642021572625
 21
313.5108070086672
 31
0.0
  0
LINE
  5
16C
330
1F
100
AcDbEntity
  8
Section Q
  6
Continuous2
 62
   216
420
  8388736
 60
     1
370
    -3
100
AcDbLine
 10
769.2592757058778
 20
298.4182298158105
 30
0.0
 11
768.5848958008606
 21
297.6613057815052
 31
0.0
  0
LINE
  5
16D
330
1F
100
AcDbEntity
  8
Section Q
  6
Continuous2
 62
   216
420
  8388736
 60
     1
370
    -3
100
AcDbLine
 10
769.4681502795089
 20
298.1588836909303
 30
0.0
 11
768.5848958008606
 21
297.6613057815052
 31
0.0
  0
LINE
  5
16E
330
1F
100
AcDbEntity
  8
Section Q
  6
Continuous2
 62
   216
420
  8388736
 60
     1
370
    -3
100
AcDbLine
 10
787.5898222522454
 20
312.7538829743618
 30
0.0
 11
788.2642021572625
 21
313.5108070086672
 31
0.0
  0
LINE
  5
16F
330
1F
100
AcDbEntity
  8
Section Q
  6
Continuous2
 62
   216
420
  8388736
 60
     1
370
    -3
100
AcDbLine
 10
787.3809476786142
 20
313.0132290992421
 30
0.0
 11
788.2642021572625
 21
313.5108070086672
 31
0.0
  0
LINE
  5
170
330
1F
100
AcDbEntity
  8
Section Q
  6
Continuous2
 62
   216
420
  8388736
 60
     1
370
    -3
100
AcDbLine
 10
787.9505766713299
 20
313.9002156045835
 30
0.0
 11
788.6683849098068
 21
313.0089592787422
 31
0.0
  0
LINE
  5
171
330
1F
100
AcDbEntity
  8
Section Q
  6
Continuous2
 62
   216
420
  8388736
 60
     1
370
    -3
100
AcDbLine
 10
769.2592757058778
 20
298.4182298158105
 30
0.0
 11
768.5848958008606
 21
297.6613057815052
 31
0.0
  0
LINE
  5
172
330
1F
100
AcDbEntity
  8
Section Q
  6
Continuous2
 62
   216
420
  8388736
 60
     1
370
    -3
100
AcDbLine
 10
769.4681502795089
 20
298.1588836909303
 30
0.0
 11
768.5848958008606
 21
297.6613057815052
 31
0.0
  0
LINE
  5
173
330
1F
100
AcDbEntity
  8
Section Q
  6
Continuous2
 62
   216
420
  8388736
 60
     1
370
    -3
100
AcDbLine
 10
787.5898222522454
 20
312.7538829743618
 30
0.0
 11
788.2642021572625
 21
313.5108070086672
 31
0.0
  0
LINE
  5
174
330
1F
100
AcDbEntity
  8
Section Q
  6
Continuous2
 62
   216
420
  8388736
 60
     1
370
    -3
100
AcDbLine
 10
787.3809476786142
 20
313.0132290992421
 30
0.0
 11
788.2642021572625
 21
313.5108070086672
 31
0.0
  0
LINE
  5
175
330
1F
100
AcDbEntity
  8
Section Q
  6
Continuous2
 62
   216
420
  8388736
 60
     1
370
    -3
100
AcDbLine
 10
-274.6675641600382
 20
326.1744347286667
 30
0.0
 11
-274.6675641600382
 21
324.7296984001288
 31
0.0
  0
LINE
  5
176
330
1F
100
AcDbEntity
  8
Section Q
  6
Continuous2
 62
   216
420
  8388736
 60
     1
370
    -3
100
AcDbLine
 10
-275.6675641600382
 20
325.5079347286667
 30
0.0
 11
-274.6675641600382
 21
325.6744347286667
 31
0.0
  0
LINE
  5
177
330
1F
100
AcDbEntity
  8
Section Q
  6
Continuous2
 62
   216
420
  8388736
 60
     1
370
    -3
100
AcDbLine
 10
-275.6675641600382
 20
325.8409347286667
 30
0.0
 11
-274.6675641600382
 21
325.6744347286667
 31
0.0
  0
LINE
  5
178
330
1F
100
AcDbEntity
  8
Section Q
  6
Continuous2
 62
   216
420
  8388736
 60
     1
370
    -3
100
AcDbLine
 10
-272.1675641600382
 20
325.8409347286667
 30
0.0
 11
-273.1675641600382
 21
325.6744347286667
 31
0.0
  0
LINE
  5
179
330
1F
100
AcDbEntity
  8
Section Q
  6
Continuous2
 62
   216
420
  8388736
 60
     1
370
    -3
100
AcDbLine
 10
-272.1675641600382
 20
325.5079347286667
 30
0.0
 11
-273.1675641600382
 21
325.6744347286667
 31
0.0
  0
LINE
  5
17A
330
1F
100
AcDbEntity
  8
Section Q
  6
Continuous2
 62
   216
420
  8388736
 60
     1
370
    -3
100
AcDbLine
 10
-274.841251641206
 20
325.6744347286667
 30
0.0
 11
-274.6675641600382
 21
325.6744347286667
 31
0.0
  0
LINE
  5
17B
330
1F
100
AcDbEntity
  8
Section Q
  6
Continuous2
 62
   216
420
  8388736
 60
     1
370
    -3
100
AcDbLine
 10
-274.841251641206
 20
325.6744347286667
 30
0.0
 11
-276.841251641206
 21
325.6744347286667
 31
0.0
  0
LINE
  5
17C
330
1F
100
AcDbEntity
  8
Section Q
  6
Continuous2
 62
   216
420
  8388736
 60
     1
370
    -3
100
AcDbLine
 10
-275.6675641600382
 20
325.5079347286667
 30
0.0
 11
-274.6675641600382
 21
325.6744347286667
 31
0.0
  0
LINE
  5
17D
330
1F
100
AcDbEntity
  8
Section Q
  6
Continuous2
 62
   216
420
  8388736
 60
     1
370
    -3
100
AcDbLine
 10
-275.6675641600382
 20
325.8409347286667
 30
0.0
 11
-274.6675641600382
 21
325.6744347286667
 31
0.0
  0
LINE
  5
17E
330
1F
100
AcDbEntity
  8
Section Q
  6
Continuous2
 62
   216
420
  8388736
 60
     1
370
    -3
100
AcDbLine
 10
-272.1675641600382
 20
325.8409347286667
 30
0.0
 11
-273.1675641600382
 21
325.6744347286667
 31
0.0
  0
LINE
  5
17F
330
1F
100
AcDbEntity
  8
Section Q
  6
Continuous2
 62
   216
420
  8388736
 60
     1
370
    -3
100
AcDbLine
 10
-272.1675641600382
 20
325.5079347286667
 30
0.0
 11
-273.1675641600382
 21
325.6744347286667
 31
0.0
  0
TEXT
  5
180
330
1F
100
AcDbEntity
  8
Section Q
  6
Continuous2
 62
   216
420
  8388736
 60
     1
370
    -3
100
AcDbText
 10
-280.0496124255198
 20
325.1744347286667
 30
0.0
 40
1.0
  1
1.500
 41
0.625
  7
MCStick_A0.625000_S0.000000
100
AcDbText
  0
LINE
  5
181
330
1F
100
AcDbEntity
  8
Section Q
  6
Continuous2
 62
   216
420
  8388736
 60
     1
370
    -3
100
AcDbLine
 10
-271.1675641600382
 20
325.6744347286667
 30
0.0
 11
-273.1675641600382
 21
325.6744347286667
 31
0.0
  0
LINE
  5
182
330
1F
100
AcDbEntity
  8
Section Q
  6
Continuous2
 62
   216
420
  8388736
 60
     1
370
    -3
100
AcDbLine
 10
-275.6675641600382
 20
325.5079347286667
 30
0.0
 11
-274.6675641600382
 21
325.6744347286667
 31
0.0
  0
LINE
  5
183
330
1F
100
AcDbEntity
  8
Section Q
  6
Continuous2
 62
   216
420
  8388736
 60
     1
370
    -3
100
AcDbLine
 10
-275.6675641600382
 20
325.8409347286667
 30
0.0
 11
-274.6675641600382
 21
325.6744347286667
 31
0.0
  0
LINE
  5
184
330
1F
100
AcDbEntity
  8
Section Q
  6
Continuous2
 62
   216
420
  8388736
 60
     1
370
    -3
100
AcDbLine
 10
-272.1675641600382
 20
325.8409347286667
 30
0.0
 11
-273.1675641600382
 21
325.6744347286667
 31
0.0
  0
LINE
  5
185
330
1F
100
AcDbEntity
  8
Section Q
  6
Continuous2
 62
   216
420
  8388736
 60
     1
370
    -3
100
AcDbLine
 10
-272.1675641600382
 20
325.5079347286667
 30
0.0
 11
-273.1675641600382
 21
325.6744347286667
 31
0.0
  0
LINE
  5
186
330
1F
100
AcDbEntity
  8
Section Q
  6
Continuous2
 62
   216
420
  8388736
 60
     1
370
    -3
100
AcDbLine
 10
-273.1675641600382
 20
326.1744347286667
 30
0.0
 11
-273.1675641600382
 21
323.2296984001288
 31
0.0
  0
LINE
  5
187
330
1F
100
AcDbEntity
  8
Section Q
  6
Continuous2
 62
   216
420
  8388736
 60
     1
370
    -3
100
AcDbLine
 10
-275.6675641600382
 20
325.5079347286667
 30
0.0
 11
-274.6675641600382
 21
325.6744347286667
 31
0.0
  0
LINE
  5
188
330
1F
100
AcDbEntity
  8
Section Q
  6
Continuous2
 62
   216
420
  8388736
 60
     1
370
    -3
100
AcDbLine
 10
-275.6675641600382
 20
325.8409347286667
 30
0.0
 11
-274.6675641600382
 21
325.6744347286667
 31
0.0
  0
LINE
  5
189
330
1F
100
AcDbEntity
  8
Section Q
  6
Continuous2
 62
   216
420
  8388736
 60
     1
370
    -3
100
AcDbLine
 10
-272.1675641600382
 20
325.8409347286667
 30
0.0
 11
-273.1675641600382
 21
325.6744347286667
 31
0.0
  0
LINE
  5
18A
330
1F
100
AcDbEntity
  8
Section Q
  6
Continuous2
 62
   216
420
  8388736
 60
     1
370
    -3
100
AcDbLine
 10
-272.1675641600382
 20
325.5079347286667
 30
0.0
 11
-273.1675641600382
 21
325.6744347286667
 31
0.0
  0
LINE
  5
18B
330
1F
100
AcDbEntity
  8
Section Q
  6
Continuous2
 62
   216
420
  8388736
 60
     1
370
    -3
100
AcDbLine
 10
-241.1481213745168
 20
292.6046984001288
 30
0.0
 11
-244.2925641600382
 21
292.6046984001288
 31
0.0
  0
LINE
  5
18C
330
1F
100
AcDbEntity
  8
Section Q
  6
Continuous2
 62
   216
420
  8388736
 60
     1
370
    -3
100
AcDbLine
 10
-241.8146213745167
 20
293.6046984001288
 30
0.0
 11
-241.6481213745168
 21
292.6046984001288
 31
0.0
  0
LINE
  5
18D
330
1F
100
AcDbEntity
  8
Section Q
  6
Continuous2
 62
   216
420
  8388736
 60
     1
370
    -3
100
AcDbLine
 10
-241.4816213745167
 20
293.6046984001288
 30
0.0
 11
-241.6481213745168
 21
292.6046984001288
 31
0.0
  0
LINE
  5
18E
330
1F
100
AcDbEntity
  8
Section Q
  6
Continuous2
 62
   216
420
  8388736
 60
     1
370
    -3
100
AcDbLine
 10
-241.4816213745167
 20
298.9011048791767
 30
0.0
 11
-241.6481213745168
 21
299.9011048791767
 31
0.0
  0
LINE
  5
18F
330
1F
100
AcDbEntity
  8
Section Q
  6
Continuous2
 62
   216
420
  8388736
 60
     1
370
    -3
100
AcDbLine
 10
-241.8146213745167
 20
298.9011048791767
 30
0.0
 11
-241.6481213745168
 21
299.9011048791767
 31
0.0
  0
LINE
  5
190
330
1F
100
AcDbEntity
  8
Section Q
  6
Continuous2
 62
   216
420
  8388736
 60
     1
370
    -3
100
AcDbLine
 10
-241.6481213745168
 20
295.208520870422
 30
0.0
 11
-241.6481213745168
 21
292.6046984001288
 31
0.0
  0
LINE
  5
191
330
1F
100
AcDbEntity
  8
Section Q
  6
Continuous2
 62
   216
420
  8388736
 60
     1
370
    -3
100
AcDbLine
 10
-241.8146213745167
 20
293.6046984001288
 30
0.0
 11
-241.6481213745168
 21
292.6046984001288
 31
0.0
  0
LINE
  5
192
330
1F
100
AcDbEntity
  8
Section Q
  6
Continuous2
 62
   216
420
  8388736
 60
     1
370
    -3
100
AcDbLine
 10
-241.4816213745167
 20
293.6046984001288
 30
0.0
 11
-241.6481213745168
 21
292.6046984001288
 31
0.0
  0
LINE
  5
193
330
1F
100
AcDbEntity
  8
Section Q
  6
Continuous2
 62
   216
420
  8388736
 60
     1
370
    -3
100
AcDbLine
 10
-241.4816213745167
 20
298.9011048791767
 30
0.0
 11
-241.6481213745168
 21
299.9011048791767
 31
0.0
  0
LINE
  5
194
330
1F
100
AcDbEntity
  8
Section Q
  6
Continuous2
 62
   216
420
  8388736
 60
     1
370
    -3
100
AcDbLine
 10
-241.8146213745167
 20
298.9011048791767
 30
0.0
 11
-241.6481213745168
 21
299.9011048791767
 31
0.0
  0
TEXT
  5
195
330
1F
100
AcDbEntity
  8
Section Q
  6
Continuous2
 62
   216
420
  8388736
 60
     1
370
    -3
100
AcDbText
 10
-243.1934645117717
 20
295.7529016396527
 30
0.0
 40
1.0
  1
7.296
 41
0.625
  7
MCStick_A0.625000_S0.000000
100
AcDbText
  0
LINE
  5
196
330
1F
100
AcDbEntity
  8
Section Q
  6
Continuous2
 62
   216
420
  8388736
 60
     1
370
    -3
100
AcDbLine
 10
-241.6481213745168
 20
297.2972824088835
 30
0.0
 11
-241.6481213745168
 21
299.9011048791767
 31
0.0
  0
LINE
  5
197
330
1F
100
AcDbEntity
  8
Section Q
  6
Continuous2
 62
   216
420
  8388736
 60
     1
370
    -3
100
AcDbLine
 10
-241.8146213745167
 20
293.6046984001288
 30
0.0
 11
-241.6481213745168
 21
292.6046984001288
 31
0.0
  0
LINE
  5
198
330
1F
100
AcDbEntity
  8
Section Q
  6
Continuous2
 62
   216
420
  8388736
 60
     1
370
    -3
100
AcDbLine
 10
-241.4816213745167
 20
293.6046984001288
 30
0.0
 11
-241.6481213745168
 21
292.6046984001288
 31
0.0
  0
LINE
  5
199
330
1F
100
AcDbEntity
  8
Section Q
  6
Continuous2
 62
   216
420
  8388736
 60
     1
370
    -3
100
AcDbLine
 10
-241.4816213745167
 20
298.9011048791767
 30
0.0
 11
-241.6481213745168
 21
299.9011048791767
 31
0.0
  0
LINE
  5
19A
330
1F
100
AcDbEntity
  8
Section Q
  6
Continuous2
 62
   216
420
  8388736
 60
     1
370
    -3
100
AcDbLine
 10
-241.8146213745167
 20
298.9011048791767
 30
0.0
 11
-241.6481213745168
 21
299.9011048791767
 31
0.0
  0
LINE
  5
19B
330
1F
100
AcDbEntity
  8
Section Q
  6
Continuous2
 62
   216
420
  8388736
 60
     1
370
    -3
100
AcDbLine
 10
-241.1481213745168
 20
299.9011048791767
 30
0.0
 11
-244.2925641600383
 21
299.9011048791767
 31
0.0
  0
LINE
  5
19C
330
1F
100
AcDbEntity
  8
Section Q
  6
Continuous2
 62
   216
420
  8388736
 60
     1
370
    -3
100
AcDbLine
 10
-241.8146213745167
 20
293.6046984001288
 30
0.0
 11
-241.6481213745168
 21
292.6046984001288
 31
0.0
  0
LINE
  5
19D
330
1F
100
AcDbEntity
  8
Section Q
  6
Continuous2
 62
   216
420
  8388736
 60
     1
370
    -3
100
AcDbLine
 10
-241.4816213745167
 20
293.6046984001288
 30
0.0
 11
-241.6481213745168
 21
292.6046984001288
 31
0.0
  0
LINE
  5
19E
330
1F
100
AcDbEntity
  8
Section Q
  6
Continuous2
 62
   216
420
  8388736
 60
     1
370
    -3
100
AcDbLine
 10
-241.4816213745167
 20
298.9011048791767
 30
0.0
 11
-241.6481213745168
 21
299.9011048791767
 31
0.0
  0
LINE
  5
19F
330
1F
100
AcDbEntity
  8
Section Q
  6
Continuous2
 62
   216
420
  8388736
 60
     1
370
    -3
100
AcDbLine
 10
-241.8146213745167
 20
298.9011048791767
 30
0.0
 11
-241.6481213745168
 21
299.9011048791767
 31
0.0
  0
LINE
  5
1A0
330
1F
100
AcDbEntity
  8
Section Q
  6
Continuous2
 62
   216
420
  8388736
 60
     1
370
    -3
100
AcDbLine
 10
-241.1499875565979
 20
291.1046984001288
 30
0.0
 11
-242.7925641600382
 21
291.1046984001288
 31
0.0
  0
LINE
  5
1A1
330
1F
100
AcDbEntity
  8
Section Q
  6
Continuous2
 62
   216
420
  8388736
 60
     1
370
    -3
100
AcDbLine
 10
-241.4834875565979
 20
290.1046984001288
 30
0.0
 11
-241.6499875565979
 21
291.1046984001288
 31
0.0
  0
LINE
  5
1A2
330
1F
100
AcDbEntity
  8
Section Q
  6
Continuous2
 62
   216
420
  8388736
 60
     1
370
    -3
100
AcDbLine
 10
-241.8164875565979
 20
290.1046984001288
 30
0.0
 11
-241.6499875565979
 21
291.1046984001288
 31
0.0
  0
LINE
  5
1A3
330
1F
100
AcDbEntity
  8
Section Q
  6
Continuous2
 62
   216
420
  8388736
 60
     1
370
    -3
100
AcDbLine
 10
-241.8164875565979
 20
293.6046984001288
 30
0.0
 11
-241.6499875565979
 21
292.6046984001288
 31
0.0
  0
LINE
  5
1A4
330
1F
100
AcDbEntity
  8
Section Q
  6
Continuous2
 62
   216
420
  8388736
 60
     1
370
    -3
100
AcDbLine
 10
-241.4834875565979
 20
293.6046984001288
 30
0.0
 11
-241.6499875565979
 21
292.6046984001288
 31
0.0
  0
LINE
  5
1A5
330
1F
100
AcDbEntity
  8
Section Q
  6
Continuous2
 62
   216
420
  8388736
 60
     1
370
    -3
100
AcDbLine
 10
-241.6499875565979
 20
289.1046984001288
 30
0.0
 11
-241.6499875565979
 21
291.1046984001288
 31
0.0
  0
LINE
  5
1A6
330
1F
100
AcDbEntity
  8
Section Q
  6
Continuous2
 62
   216
420
  8388736
 60
     1
370
    -3
100
AcDbLine
 10
-241.4834875565979
 20
290.1046984001288
 30
0.0
 11
-241.6499875565979
 21
291.1046984001288
 31
0.0
  0
LINE
  5
1A7
330
1F
100
AcDbEntity
  8
Section Q
  6
Continuous2
 62
   216
420
  8388736
 60
     1
370
    -3
100
AcDbLine
 10
-241.8164875565979
 20
290.1046984001288
 30
0.0
 11
-241.6499875565979
 21
291.1046984001288
 31
0.0
  0
LINE
  5
1A8
330
1F
100
AcDbEntity
  8
Section Q
  6
Continuous2
 62
   216
420
  8388736
 60
     1
370
    -3
100
AcDbLine
 10
-241.8164875565979
 20
293.6046984001288
 30
0.0
 11
-241.6499875565979
 21
292.6046984001288
 31
0.0
  0
LINE
  5
1A9
330
1F
100
AcDbEntity
  8
Section Q
  6
Continuous2
 62
   216
420
  8388736
 60
     1
370
    -3
100
AcDbLine
 10
-241.4834875565979
 20
293.6046984001288
 30
0.0
 11
-241.6499875565979
 21
292.6046984001288
 31
0.0
  0
TEXT
  5
1AA
330
1F
100
AcDbEntity
  8
Section Q
  6
Continuous2
 62
   216
420
  8388736
 60
     1
370
    -3
100
AcDbText
 10
-243.0384679487547
 20
291.4333791693596
 30
0.0
 40
1.0
  1
1.500
 41
0.625
  7
MCStick_A0.625000_S0.000000
100
AcDbText
  0
LINE
  5
1AB
330
1F
100
AcDbEntity
  8
Section Q
  6
Continuous2
 62
   216
420
  8388736
 60
     1
370
    -3
100
AcDbLine
 10
-241.6499875565979
 20
294.6046984001288
 30
0.0
 11
-241.6499875565979
 21
292.6046984001288
 31
0.0
  0
LINE
  5
1AC
330
1F
100
AcDbEntity
  8
Section Q
  6
Continuous2
 62
   216
420
  8388736
 60
     1
370
    -3
100
AcDbLine
 10
-241.4834875565979
 20
290.1046984001288
 30
0.0
 11
-241.6499875565979
 21
291.1046984001288
 31
0.0
  0
LINE
  5
1AD
330
1F
100
AcDbEntity
  8
Section Q
  6
Continuous2
 62
   216
420
  8388736
 60
     1
370
    -3
100
AcDbLine
 10
-241.8164875565979
 20
290.1046984001288
 30
0.0
 11
-241.6499875565979
 21
291.1046984001288
 31
0.0
  0
LINE
  5
1AE
330
1F
100
AcDbEntity
  8
Section Q
  6
Continuous2
 62
   216
420
  8388736
 60
     1
370
    -3
100
AcDbLine
 10
-241.8164875565979
 20
293.6046984001288
 30
0.0
 11
-241.6499875565979
 21
292.6046984001288
 31
0.0
  0
LINE
  5
1AF
330
1F
100
AcDbEntity
  8
Section Q
  6
Continuous2
 62
   216
420
  8388736
 60
     1
370
    -3
100
AcDbLine
 10
-241.4834875565979
 20
293.6046984001288
 30
0.0
 11
-241.6499875565979
 21
292.6046984001288
 31
0.0
  0
LINE
  5
1B0
330
1F
100
AcDbEntity
  8
Section Q
  6
Continuous2
 62
   216
420
  8388736
 60
     1
370
    -3
100
AcDbLine
 10
-241.1499875565979
 20
292.6046984001288
 30
0.0
 11
-244.2925641600382
 21
292.6046984001288
 31
0.0
  0
LINE
  5
1B1
330
1F
100
AcDbEntity
  8
Section Q
  6
Continuous2
 62
   216
420
  8388736
 60
     1
370
    -3
100
AcDbLine
 10
-241.4834875565979
 20
290.1046984001288
 30
0.0
 11
-241.6499875565979
 21
291.1046984001288
 31
0.0
  0
LINE
  5
1B2
330
1F
100
AcDbEntity
  8
Section Q
  6
Continuous2
 62
   216
420
  8388736
 60
     1
370
    -3
100
AcDbLine
 10
-241.8164875565979
 20
290.1046984001288
 30
0.0
 11
-241.6499875565979
 21
291.1046984001288
 31
0.0
  0
LINE
  5
1B3
330
1F
100
AcDbEntity
  8
Section Q
  6
Continuous2
 62
   216
420
  8388736
 60
     1
370
    -3
100
AcDbLine
 10
-241.8164875565979
 20
293.6046984001288
 30
0.0
 11
-241.6499875565979
 21
292.6046984001288
 31
0.0
  0
LINE
  5
1B4
330
1F
100
AcDbEntity
  8
Section Q
  6
Continuous2
 62
   216
420
  8388736
 60
     1
370
    -3
100
AcDbLine
 10
-241.4834875565979
 20
293.6046984001288
 30
0.0
 11
-241.6499875565979
 21
292.6046984001288
 31
0.0
  0
LINE
  5
1B5
330
1F
100
AcDbEntity
  8
Section Q
  6
Continuous2
 62
   216
420
  8388736
 60
     1
370
    -3
100
AcDbLine
 10
-273.1526667154997
 20
326.0028255378183
 30
0.0
 11
-273.1526667154997
 21
324.7296984001288
 31
0.0
  0
LINE
  5
1B6
330
1F
100
AcDbEntity
  8
Section Q
  6
Continuous2
 62
   216
420
  8388736
 60
     1
370
    -3
100
AcDbLine
 10
-272.1526667154997
 20
325.6693255378183
 30
0.0
 11
-273.1526667154997
 21
325.5028255378183
 31
0.0
  0
LINE
  5
1B7
330
1F
100
AcDbEntity
  8
Section Q
  6
Continuous2
 62
   216
420
  8388736
 60
     1
370
    -3
100
AcDbLine
 10
-272.1526667154997
 20
325.3363255378183
 30
0.0
 11
-273.1526667154997
 21
325.5028255378183
 31
0.0
  0
LINE
  5
1B8
330
1F
100
AcDbEntity
  8
Section Q
  6
Continuous2
 62
   216
420
  8388736
 60
     1
370
    -3
100
AcDbLine
 10
-267.24736
 20
325.3363255378183
 30
0.0
 11
-266.24736
 21
325.5028255378183
 31
0.0
  0
LINE
  5
1B9
330
1F
100
AcDbEntity
  8
Section Q
  6
Continuous2
 62
   216
420
  8388736
 60
     1
370
    -3
100
AcDbLine
 10
-267.24736
 20
325.6693255378183
 30
0.0
 11
-266.24736
 21
325.5028255378183
 31
0.0
  0
LINE
  5
1BA
330
1F
100
AcDbEntity
  8
Section Q
  6
Continuous2
 62
   216
420
  8388736
 60
     1
370
    -3
100
AcDbLine
 10
-272.0169461555464
 20
325.5028255378183
 30
0.0
 11
-273.1526667154997
 21
325.5028255378183
 31
0.0
  0
LINE
  5
1BB
330
1F
100
AcDbEntity
  8
Section Q
  6
Continuous2
 62
   216
420
  8388736
 60
     1
370
    -3
100
AcDbLine
 10
-272.1526667154997
 20
325.6693255378183
 30
0.0
 11
-273.1526667154997
 21
325.5028255378183
 31
0.0
  0
LINE
  5
1BC
330
1F
100
AcDbEntity
  8
Section Q
  6
Continuous2
 62
   216
420
  8388736
 60
     1
370
    -3
100
AcDbLine
 10
-272.1526667154997
 20
325.3363255378183
 30
0.0
 11
-273.1526667154997
 21
325.5028255378183
 31
0.0
  0
LINE
  5
1BD
330
1F
100
AcDbEntity
  8
Section Q
  6
Continuous2
 62
   216
420
  8388736
 60
     1
370
    -3
100
AcDbLine
 10
-267.24736
 20
325.3363255378183
 30
0.0
 11
-266.24736
 21
325.5028255378183
 31
0.0
  0
LINE
  5
1BE
330
1F
100
AcDbEntity
  8
Section Q
  6
Continuous2
 62
   216
420
  8388736
 60
     1
370
    -3
100
AcDbLine
 10
-267.24736
 20
325.6693255378183
 30
0.0
 11
-266.24736
 21
325.5028255378183
 31
0.0
  0
TEXT
  5
1BF
330
1F
100
AcDbEntity
  8
Section Q
  6
Continuous2
 62
   216
420
  8388736
 60
     1
370
    -3
100
AcDbText
 10
-271.5855461555464
 20
325.0028255378183
 30
0.0
 40
1.0
  1
6.905
 41
0.625
  7
MCStick_A0.625000_S0.000000
100
AcDbText
  0
LINE
  5
1C0
330
1F
100
AcDbEntity
  8
Section Q
  6
Continuous2
 62
   216
420
  8388736
 60
     1
370
    -3
100
AcDbLine
 10
-268.0634598810366
 20
325.5028255378183
 30
0.0
 11
-266.24736
 21
325.5028255378183
 31
0.0
  0
LINE
  5
1C1
330
1F
100
AcDbEntity
  8
Section Q
  6
Continuous2
 62
   216
420
  8388736
 60
     1
370
    -3
100
AcDbLine
 10
-272.1526667154997
 20
325.6693255378183
 30
0.0
 11
-273.1526667154997
 21
325.5028255378183
 31
0.0
  0
LINE
  5
1C2
330
1F
100
AcDbEntity
  8
Section Q
  6
Continuous2
 62
   216
420
  8388736
 60
     1
370
    -3
100
AcDbLine
 10
-272.1526667154997
 20
325.3363255378183
 30
0.0
 11
-273.1526667154997
 21
325.5028255378183
 31
0.0
  0
LINE
  5
1C3
330
1F
100
AcDbEntity
  8
Section Q
  6
Continuous2
 62
   216
420
  8388736
 60
     1
370
    -3
100
AcDbLine
 10
-267.24736
 20
325.3363255378183
 30
0.0
 11
-266.24736
 21
325.5028255378183
 31
0.0
  0
LINE
  5
1C4
330
1F
100
AcDbEntity
  8
Section Q
  6
Continuous2
 62
   216
420
  8388736
 60
     1
370
    -3
100
AcDbLine
 10
-267.24736
 20
325.6693255378183
 30
0.0
 11
-266.24736
 21
325.5028255378183
 31
0.0
  0
LINE
  5
1C5
330
1F
100
AcDbEntity
  8
Section Q
  6
Continuous2
 62
   216
420
  8388736
 60
     1
370
    -3
100
AcDbLine
 10
-266.24736
 20
326.0028255378183
 30
0.0
 11
-266.24736
 21
324.7296984001288
 31
0.0
  0
LINE
  5
1C6
330
1F
100
AcDbEntity
  8
Section Q
  6
Continuous2
 62
   216
420
  8388736
 60
     1
370
    -3
100
AcDbLine
 10
-272.1526667154997
 20
325.6693255378183
 30
0.0
 11
-273.1526667154997
 21
325.5028255378183
 31
0.0
  0
LINE
  5
1C7
330
1F
100
AcDbEntity
  8
Section Q
  6
Continuous2
 62
   216
420
  8388736
 60
     1
370
    -3
100
AcDbLine
 10
-272.1526667154997
 20
325.3363255378183
 30
0.0
 11
-273.1526667154997
 21
325.5028255378183
 31
0.0
  0
LINE
  5
1C8
330
1F
100
AcDbEntity
  8
Section Q
  6
Continuous2
 62
   216
420
  8388736
 60
     1
370
    -3
100
AcDbLine
 10
-267.24736
 20
325.3363255378183
 30
0.0
 11
-266.24736
 21
325.5028255378183
 31
0.0
  0
LINE
  5
1C9
330
1F
100
AcDbEntity
  8
Section Q
  6
Continuous2
 62
   216
420
  8388736
 60
     1
370
    -3
100
AcDbLine
 10
-267.24736
 20
325.6693255378183
 30
0.0
 11
-266.24736
 21
325.5028255378183
 31
0.0
  0
LINE
  5
1CA
330
1F
100
AcDbEntity
  8
Section Q
  6
Continuous2
 62
   216
420
  8388736
 60
     1
370
    -3
100
AcDbLine
 10
240.4539134499279
 20
296.9654118008697
 30
0.0
 11
237.9758877453002
 21
296.9654118008697
 31
0.0
  0
LINE
  5
1CB
330
1F
100
AcDbEntity
  8
Section Q
  6
Continuous2
 62
   216
420
  8388736
 60
     1
370
    -3
100
AcDbLine
 10
239.7874134499279
 20
297.9654118008697
 30
0.0
 11
239.9539134499279
 21
296.9654118008697
 31
0.0
  0
LINE
  5
1CC
330
1F
100
AcDbEntity
  8
Section Q
  6
Continuous2
 62
   216
420
  8388736
 60
     1
370
    -3
100
AcDbLine
 10
240.1204134499279
 20
297.9654118008697
 30
0.0
 11
239.9539134499279
 21
296.9654118008697
 31
0.0
  0
LINE
  5
1CD
330
1F
100
AcDbEntity
  8
Section Q
  6
Continuous2
 62
   216
420
  8388736
 60
     1
370
    -3
100
AcDbLine
 10
240.1204134499279
 20
307.4605460217253
 30
0.0
 11
239.9539134499279
 21
308.4605460217253
 31
0.0
  0
LINE
  5
1CE
330
1F
100
AcDbEntity
  8
Section Q
  6
Continuous2
 62
   216
420
  8388736
 60
     1
370
    -3
100
AcDbLine
 10
239.7874134499279
 20
307.4605460217253
 30
0.0
 11
239.9539134499279
 21
308.4605460217253
 31
0.0
  0
LINE
  5
1CF
330
1F
100
AcDbEntity
  8
Section Q
  6
Continuous2
 62
   216
420
  8388736
 60
     1
370
    -3
100
AcDbLine
 10
239.9539134499279
 20
301.6685981420668
 30
0.0
 11
239.9539134499279
 21
296.9654118008697
 31
0.0
  0
LINE
  5
1D0
330
1F
100
AcDbEntity
  8
Section Q
  6
Continuous2
 62
   216
420
  8388736
 60
     1
370
    -3
100
AcDbLine
 10
239.7874134499279
 20
297.9654118008697
 30
0.0
 11
239.9539134499279
 21
296.9654118008697
 31
0.0
  0
LINE
  5
1D1
330
1F
100
AcDbEntity
  8
Section Q
  6
Continuous2
 62
   216
420
  8388736
 60
     1
370
    -3
100
AcDbLine
 10
240.1204134499279
 20
297.9654118008697
 30
0.0
 11
239.9539134499279
 21
296.9654118008697
 31
0.0
  0
LINE
  5
1D2
330
1F
100
AcDbEntity
  8
Section Q
  6
Continuous2
 62
   216
420
  8388736
 60
     1
370
    -3
100
AcDbLine
 10
240.1204134499279
 20
307.4605460217253
 30
0.0
 11
239.9539134499279
 21
308.4605460217253
 31
0.0
  0
LINE
  5
1D3
330
1F
100
AcDbEntity
  8
Section Q
  6
Continuous2
 62
   216
420
  8388736
 60
     1
370
    -3
100
AcDbLine
 10
239.7874134499279
 20
307.4605460217253
 30
0.0
 11
239.9539134499279
 21
308.4605460217253
 31
0.0
  0
TEXT
  5
1D4
330
1F
100
AcDbEntity
  8
Section Q
  6
Continuous2
 62
   216
420
  8388736
 60
     1
370
    -3
100
AcDbText
 10
238.3472958028691
 20
302.2129789112976
 30
0.0
 40
1.0
  1
11.495
 41
0.625
  7
MCStick_A0.625000_S0.000000
100
AcDbText
  0
LINE
  5
1D5
330
1F
100
AcDbEntity
  8
Section Q
  6
Continuous2
 62
   216
420
  8388736
 60
     1
370
    -3
100
AcDbLine
 10
239.9539134499279
 20
303.7573596805283
 30
0.0
 11
239.9539134499279
 21
308.4605460217253
 31
0.0
  0
LINE
  5
1D6
330
1F
100
AcDbEntity
  8
Section Q
  6
Continuous2
 62
   216
420
  8388736
 60
     1
370
    -3
100
AcDbLine
 10
239.7874134499279
 20
297.9654118008697
 30
0.0
 11
239.9539134499279
 21
296.9654118008697
 31
0.0
  0
LINE
  5
1D7
330
1F
100
AcDbEntity
  8
Section Q
  6
Continuous2
 62
   216
420
  8388736
 60
     1
370
    -3
100
AcDbLine
 10
240.1204134499279
 20
297.9654118008697
 30
0.0
 11
239.9539134499279
 21
296.9654118008697
 31
0.0
  0
LINE
  5
1D8
330
1F
100
AcDbEntity
  8
Section Q
  6
Continuous2
 62
   216
420
  8388736
 60
     1
370
    -3
100
AcDbLine
 10
240.1204134499279
 20
307.4605460217253
 30
0.0
 11
239.9539134499279
 21
308.4605460217253
 31
0.0
  0
LINE
  5
1D9
330
1F
100
AcDbEntity
  8
Section Q
  6
Continuous2
 62
   216
420
  8388736
 60
     1
370
    -3
100
AcDbLine
 10
239.7874134499279
 20
307.4605460217253
 30
0.0
 11
239.9539134499279
 21
308.4605460217253
 31
0.0
  0
LINE
  5
1DA
330
1F
100
AcDbEntity
  8
Section Q
  6
Continuous2
 62
   216
420
  8388736
 60
     1
370
    -3
100
AcDbLine
 10
240.4539134499279
 20
308.4605460217253
 30
0.0
 11
237.9758804698807
 21
308.4605460217253
 31
0.0
  0
LINE
  5
1DB
330
1F
100
AcDbEntity
  8
Section Q
  6
Continuous2
 62
   216
420
  8388736
 60
     1
370
    -3
100
AcDbLine
 10
239.7874134499279
 20
297.9654118008697
 30
0.0
 11
239.9539134499279
 21
296.9654118008697
 31
0.0
  0
LINE
  5
1DC
330
1F
100
AcDbEntity
  8
Section Q
  6
Continuous2
 62
   216
420
  8388736
 60
     1
370
    -3
100
AcDbLine
 10
240.1204134499279
 20
297.9654118008697
 30
0.0
 11
239.9539134499279
 21
296.9654118008697
 31
0.0
  0
LINE
  5
1DD
330
1F
100
AcDbEntity
  8
Section Q
  6
Continuous2
 62
   216
420
  8388736
 60
     1
370
    -3
100
AcDbLine
 10
240.1204134499279
 20
307.4605460217253
 30
0.0
 11
239.9539134499279
 21
308.4605460217253
 31
0.0
  0
LINE
  5
1DE
330
1F
100
AcDbEntity
  8
Section Q
  6
Continuous2
 62
   216
420
  8388736
 60
     1
370
    -3
100
AcDbLine
 10
239.7874134499279
 20
307.4605460217253
 30
0.0
 11
239.9539134499279
 21
308.4605460217253
 31
0.0
  0
LINE
  5
1DF
330
1F
100
AcDbEntity
  8
Section Q
  6
Continuous2
 62
   216
420
  8388736
 60
     1
370
    -3
100
AcDbLine
 10
388.1126263100212
 20
319.4004696843651
 30
0.0
 11
385.6441641463784
 21
319.4004696843651
 31
0.0
  0
LINE
  5
1E0
330
1F
100
AcDbEntity
  8
Section Q
  6
Continuous2
 62
   216
420
  8388736
 60
     1
370
    -3
100
AcDbLine
 10
387.4461263100212
 20
320.4004696843651
 30
0.0
 11
387.6126263100212
 21
319.4004696843651
 31
0.0
  0
LINE
  5
1E1
330
1F
100
AcDbEntity
  8
Section Q
  6
Continuous2
 62
   216
420
  8388736
 60
     1
370
    -3
100
AcDbLine
 10
387.7791263100212
 20
320.4004696843651
 30
0.0
 11
387.6126263100212
 21
319.4004696843651
 31
0.0
  0
LINE
  5
1E2
330
1F
100
AcDbEntity
  8
Section Q
  6
Continuous2
 62
   216
420
  8388736
 60
     1
370
    -3
100
AcDbLine
 10
387.7791263100212
 20
325.8488730988154
 30
0.0
 11
387.6126263100212
 21
326.8488730988154
 31
0.0
  0
LINE
  5
1E3
330
1F
100
AcDbEntity
  8
Section Q
  6
Continuous2
 62
   216
420
  8388736
 60
     1
370
    -3
100
AcDbLine
 10
387.4461263100212
 20
325.8488730988154
 30
0.0
 11
387.6126263100212
 21
326.8488730988154
 31
0.0
  0
LINE
  5
1E4
330
1F
100
AcDbEntity
  8
Section Q
  6
Continuous2
 62
   216
420
  8388736
 60
     1
370
    -3
100
AcDbLine
 10
387.6126263100212
 20
322.0802906223595
 30
0.0
 11
387.6126263100212
 21
319.4004696843651
 31
0.0
  0
LINE
  5
1E5
330
1F
100
AcDbEntity
  8
Section Q
  6
Continuous2
 62
   216
420
  8388736
 60
     1
370
    -3
100
AcDbLine
 10
387.4461263100212
 20
320.4004696843651
 30
0.0
 11
387.6126263100212
 21
319.4004696843651
 31
0.0
  0
LINE
  5
1E6
330
1F
100
AcDbEntity
  8
Section Q
  6
Continuous2
 62
   216
420
  8388736
 60
     1
370
    -3
100
AcDbLine
 10
387.7791263100212
 20
320.4004696843651
 30
0.0
 11
387.6126263100212
 21
319.4004696843651
 31
0.0
  0
LINE
  5
1E7
330
1F
100
AcDbEntity
  8
Section Q
  6
Continuous2
 62
   216
420
  8388736
 60
     1
370
    -3
100
AcDbLine
 10
387.7791263100212
 20
325.8488730988154
 30
0.0
 11
387.6126263100212
 21
326.8488730988154
 31
0.0
  0
LINE
  5
1E8
330
1F
100
AcDbEntity
  8
Section Q
  6
Continuous2
 62
   216
420
  8388736
 60
     1
370
    -3
100
AcDbLine
 10
387.4461263100212
 20
325.8488730988154
 30
0.0
 11
387.6126263100212
 21
326.8488730988154
 31
0.0
  0
TEXT
  5
1E9
330
1F
100
AcDbEntity
  8
Section Q
  6
Continuous2
 62
   216
420
  8388736
 60
     1
370
    -3
100
AcDbText
 10
386.0672831727663
 20
322.6246713915903
 30
0.0
 40
1.0
  1
7.448
 41
0.625
  7
MCStick_A0.625000_S0.000000
100
AcDbText
  0
LINE
  5
1EA
330
1F
100
AcDbEntity
  8
Section Q
  6
Continuous2
 62
   216
420
  8388736
 60
     1
370
    -3
100
AcDbLine
 10
387.6126263100212
 20
324.169052160821
 30
0.0
 11
387.6126263100212
 21
326.8488730988154
 31
0.0
  0
LINE
  5
1EB
330
1F
100
AcDbEntity
  8
Section Q
  6
Continuous2
 62
   216
420
  8388736
 60
     1
370
    -3
100
AcDbLine
 10
387.4461263100212
 20
320.4004696843651
 30
0.0
 11
387.6126263100212
 21
319.4004696843651
 31
0.0
  0
LINE
  5
1EC
330
1F
100
AcDbEntity
  8
Section Q
  6
Continuous2
 62
   216
420
  8388736
 60
     1
370
    -3
100
AcDbLine
 10
387.7791263100212
 20
320.4004696843651
 30
0.0
 11
387.6126263100212
 21
319.4004696843651
 31
0.0
  0
LINE
  5
1ED
330
1F
100
AcDbEntity
  8
Section Q
  6
Continuous2
 62
   216
420
  8388736
 60
     1
370
    -3
100
AcDbLine
 10
387.7791263100212
 20
325.8488730988154
 30
0.0
 11
387.6126263100212
 21
326.8488730988154
 31
0.0
  0
LINE
  5
1EE
330
1F
100
AcDbEntity
  8
Section Q
  6
Continuous2
 62
   216
420
  8388736
 60
     1
370
    -3
100
AcDbLine
 10
387.4461263100212
 20
325.8488730988154
 30
0.0
 11
387.6126263100212
 21
326.8488730988154
 31
0.0
  0
LINE
  5
1EF
330
1F
100
AcDbEntity
  8
Section Q
  6
Continuous2
 62
   216
420
  8388736
 60
     1
370
    -3
100
AcDbLine
 10
388.1126263100212
 20
326.8488730988154
 30
0.0
 11
385.6143614217979
 21
326.8488730988154
 31
0.0
  0
LINE
  5
1F0
330
1F
100
AcDbEntity
  8
Section Q
  6
Continuous2
 62
   216
420
  8388736
 60
     1
370
    -3
100
AcDbLine
 10
387.4461263100212
 20
320.4004696843651
 30
0.0
 11
387.6126263100212
 21
319.4004696843651
 31
0.0
  0
LINE
  5
1F1
330
1F
100
AcDbEntity
  8
Section Q
  6
Continuous2
 62
   216
420
  8388736
 60
     1
370
    -3
100
AcDbLine
 10
387.7791263100212
 20
320.4004696843651
 30
0.0
 11
387.6126263100212
 21
319.4004696843651
 31
0.0
  0
LINE
  5
1F2
330
1F
100
AcDbEntity
  8
Section Q
  6
Continuous2
 62
   216
420
  8388736
 60
     1
370
    -3
100
AcDbLine
 10
387.7791263100212
 20
325.8488730988154
 30
0.0
 11
387.6126263100212
 21
326.8488730988154
 31
0.0
  0
LINE
  5
1F3
330
1F
100
AcDbEntity
  8
Section Q
  6
Continuous2
 62
   216
420
  8388736
 60
     1
370
    -3
100
AcDbLine
 10
387.4461263100212
 20
325.8488730988154
 30
0.0
 11
387.6126263100212
 21
326.8488730988154
 31
0.0
  0
LINE
  5
1F4
330
1F
100
AcDbEntity
  8
Section Q
  6
Continuous2
 62
   132
420
    49344
 60
     1
370
    -3
100
AcDbLine
 10
-123.5935890438548
 20
304.0374125663754
 30
0.0
 11
-123.5935890438548
 21
304.0374125663754
 31
0.0
  0
LINE
  5
1F5
330
1F
100
AcDbEntity
  8
Section Q
  6
Continuous2
 62
   132
420
    49344
 60
     1
370
    -3
100
AcDbLine
 10
-123.8344796858189
 20
303.3162569214282
 30
0.0
 11
-123.5935890438548
 21
304.0374125663754
 31
0.0
  0
LINE
  5
1F6
330
1F
100
AcDbEntity
  8
Section Q
  6
Continuous2
 62
   132
420
    49344
 60
     1
370
    -3
100
AcDbLine
 10
-124.0551509504228
 20
303.4332152707589
 30
0.0
 11
-123.5935890438548
 21
304.0374125663754
 31
0.0
  0
LINE
  5
1F7
330
1F
100
AcDbEntity
  8
Section Q
  6
Continuous2
 62
   132
420
    49344
 60
     1
370
    -3
100
AcDbLine
 10
-124.0551509504228
 20
301.123511777483
 30
0.0
 11
-123.5935890438548
 21
300.5193144818665
 31
0.0
  0
LINE
  5
1F8
330
1F
100
AcDbEntity
  8
Section Q
  6
Continuous2
 62
   132
420
    49344
 60
     1
370
    -3
100
AcDbLine
 10
-123.8344796858189
 20
301.2404701268136
 30
0.0
 11
-123.5935890438548
 21
300.5193144818665
 31
0.0
  0
ARC
  5
1F9
330
1F
100
AcDbEntity
  8
Section Q
  6
Continuous2
 62
   132
420
    49344
 60
     1
370
    -3
100
AcDbCircle
 10
-121.073482048625
 20
302.2783635241209
 30
0.0
 40
3.073303239262704
100
AcDbArc
 50
145.084739651516
 51
174.7085574361416
  0
LINE
  5
1FA
330
1F
100
AcDbEntity
  8
Section Q
  6
Continuous2
 62
   132
420
    49344
 60
     1
370
    -3
100
AcDbLine
 10
-123.8344796858189
 20
303.3162569214282
 30
0.0
 11
-123.5935890438548
 21
304.0374125663754
 31
0.0
  0
LINE
  5
1FB
330
1F
100
AcDbEntity
  8
Section Q
  6
Continuous2
 62
   132
420
    49344
 60
     1
370
    -3
100
AcDbLine
 10
-124.0551509504228
 20
303.4332152707589
 30
0.0
 11
-123.5935890438548
 21
304.0374125663754
 31
0.0
  0
LINE
  5
1FC
330
1F
100
AcDbEntity
  8
Section Q
  6
Continuous2
 62
   132
420
    49344
 60
     1
370
    -3
100
AcDbLine
 10
-124.0551509504228
 20
301.123511777483
 30
0.0
 11
-123.5935890438548
 21
300.5193144818665
 31
0.0
  0
LINE
  5
1FD
330
1F
100
AcDbEntity
  8
Section Q
  6
Continuous2
 62
   132
420
    49344
 60
     1
370
    -3
100
AcDbLine
 10
-123.8344796858189
 20
301.2404701268136
 30
0.0
 11
-123.5935890438548
 21
300.5193144818665
 31
0.0
  0
TEXT
  5
1FE
330
1F
100
AcDbEntity
  8
Section Q
  6
Continuous2
 62
   132
420
    49344
 60
     1
370
    -3
100
AcDbText
 10
-125.4507431352248
 20
301.5652787175252
 30
0.0
 40
0.75
  1
69.83°
 41
0.625
  7
MCStick_A0.625000_S0.000000
100
AcDbText
  0
ARC
  5
1FF
330
1F
100
AcDbEntity
  8
Section Q
  6
Continuous2
 62
   132
420
    49344
 60
     1
370
    -3
100
AcDbCircle
 10
-121.073482048625
 20
302.2783635241209
 30
0.0
 40
3.073303239262704
100
AcDbArc
 50
198.1940236819219
 51
214.9152603484839
  0
LINE
  5
200
330
1F
100
AcDbEntity
  8
Section Q
  6
Continuous2
 62
   132
420
    49344
 60
     1
370
    -3
100
AcDbLine
 10
-123.8344796858189
 20
303.3162569214282
 30
0.0
 11
-123.5935890438548
 21
304.0374125663754
 31
0.0
  0
LINE
  5
201
330
1F
100
AcDbEntity
  8
Section Q
  6
Continuous2
 62
   132
420
    49344
 60
     1
370
    -3
100
AcDbLine
 10
-124.0551509504228
 20
303.4332152707589
 30
0.0
 11
-123.5935890438548
 21
304.0374125663754
 31
0.0
  0
LINE
  5
202
330
1F
100
AcDbEntity
  8
Section Q
  6
Continuous2
 62
   132
420
    49344
 60
     1
370
    -3
100
AcDbLine
 10
-124.0551509504228
 20
301.123511777483
 30
0.0
 11
-123.5935890438548
 21
300.5193144818665
 31
0.0
  0
LINE
  5
203
330
1F
100
AcDbEntity
  8
Section Q
  6
Continuous2
 62
   132
420
    49344
 60
     1
370
    -3
100
AcDbLine
 10
-123.8344796858189
 20
301.2404701268136
 30
0.0
 11
-123.5935890438548
 21
300.5193144818665
 31
0.0
  0
LINE
  5
204
330
1F
100
AcDbEntity
  8
Section Q
  6
Continuous2
 62
   132
420
    49344
 60
     1
370
    -3
100
AcDbLine
 10
-123.5935890438548
 20
300.5193144818665
 30
0.0
 11
-123.5935890438548
 21
300.5193144818665
 31
0.0
  0
LINE
  5
205
330
1F
100
AcDbEntity
  8
Section Q
  6
Continuous2
 62
   132
420
    49344
 60
     1
370
    -3
100
AcDbLine
 10
-123.8344796858189
 20
303.3162569214282
 30
0.0
 11
-123.5935890438548
 21
304.0374125663754
 31
0.0
  0
LINE
  5
206
330
1F
100
AcDbEntity
  8
Section Q
  6
Continuous2
 62
   132
420
    49344
 60
     1
370
    -3
100
AcDbLine
 10
-124.0551509504228
 20
303.4332152707589
 30
0.0
 11
-123.5935890438548
 21
304.0374125663754
 31
0.0
  0
LINE
  5
207
330
1F
100
AcDbEntity
  8
Section Q
  6
Continuous2
 62
   132
420
    49344
 60
     1
370
    -3
100
AcDbLine
 10
-124.0551509504228
 20
301.123511777483
 30
0.0
 11
-123.5935890438548
 21
300.5193144818665
 31
0.0
  0
LINE
  5
208
330
1F
100
AcDbEntity
  8
Section Q
  6
Continuous2
 62
   132
420
    49344
 60
     1
370
    -3
100
AcDbLine
 10
-123.8344796858189
 20
301.2404701268136
 30
0.0
 11
-123.5935890438548
 21
300.5193144818665
 31
0.0
  0
LINE
  5
209
330
1F
100
AcDbEntity
  8
Section Q
  6
Continuous2
 62
   132
420
    49344
 60
     1
370
    -3
100
AcDbLine
 10
-53.8119883380673
 20
303.9515340782708
 30
0.0
 11
-53.8119883380673
 21
303.9515340782708
 31
0.0
  0
LINE
  5
20A
330
1F
100
AcDbEntity
  8
Section Q
  6
Continuous2
 62
   132
420
    49344
 60
     1
370
    -3
100
AcDbLine
 10
-54.04641281842646
 20
303.2282506423804
 30
0.0
 11
-53.8119883380673
 21
303.9515340782708
 31
0.0
  0
LINE
  5
20B
330
1F
100
AcDbEntity
  8
Section Q
  6
Continuous2
 62
   132
420
    49344
 60
     1
370
    -3
100
AcDbLine
 10
-54.26812236694525
 20
303.3432286341684
 30
0.0
 11
-53.8119883380673
 21
303.9515340782708
 31
0.0
  0
LINE
  5
20C
330
1F
100
AcDbEntity
  8
Section Q
  6
Continuous2
 62
   132
420
    49344
 60
     1
370
    -3
100
AcDbLine
 10
-54.26812236694525
 20
301.387523980612
 30
0.0
 11
-53.8119883380673
 21
300.7792185365096
 31
0.0
  0
LINE
  5
20D
330
1F
100
AcDbEntity
  8
Section Q
  6
Continuous2
 62
   132
420
    49344
 60
     1
370
    -3
100
AcDbLine
 10
-54.04641281842646
 20
301.5025019724
 30
0.0
 11
-53.8119883380673
 21
300.7792185365096
 31
0.0
  0
ARC
  5
20E
330
1F
100
AcDbEntity
  8
Section Q
  6
Continuous2
 62
   132
420
    49344
 60
     1
370
    -3
100
AcDbCircle
 10
-51.56547100543242
 20
302.3653763073902
 30
0.0
 40
2.750043017836934
100
AcDbArc
 50
144.7759248755373
 51
164.7835928463315
  0
LINE
  5
20F
330
1F
100
AcDbEntity
  8
Section Q
  6
Continuous2
 62
   132
420
    49344
 60
     1
370
    -3
100
AcDbLine
 10
-54.04641281842646
 20
303.2282506423804
 30
0.0
 11
-53.8119883380673
 21
303.9515340782708
 31
0.0
  0
LINE
  5
210
330
1F
100
AcDbEntity
  8
Section Q
  6
Continuous2
 62
   132
420
    49344
 60
     1
370
    -3
100
AcDbLine
 10
-54.26812236694525
 20
303.3432286341684
 30
0.0
 11
-53.8119883380673
 21
303.9515340782708
 31
0.0
  0
LINE
  5
211
330
1F
100
AcDbEntity
  8
Section Q
  6
Continuous2
 62
   132
420
    49344
 60
     1
370
    -3
100
AcDbLine
 10
-54.26812236694525
 20
301.387523980612
 30
0.0
 11
-53.8119883380673
 21
300.7792185365096
 31
0.0
  0
LINE
  5
212
330
1F
100
AcDbEntity
  8
Section Q
  6
Continuous2
 62
   132
420
    49344
 60
     1
370
    -3
100
AcDbLine
 10
-54.04641281842646
 20
301.5025019724
 30
0.0
 11
-53.8119883380673
 21
300.7792185365096
 31
0.0
  0
TEXT
  5
213
330
1F
100
AcDbEntity
  8
Section Q
  6
Continuous2
 62
   132
420
    49344
 60
     1
370
    -3
100
AcDbText
 10
-55.63629532840913
 20
302.090657170649
 30
0.0
 40
0.75
  1
70.45°
 41
0.625
  7
MCStick_A0.625000_S0.000000
100
AcDbText
  0
ARC
  5
214
330
1F
100
AcDbEntity
  8
Section Q
  6
Continuous2
 62
   132
420
    49344
 60
     1
370
    -3
100
AcDbCircle
 10
-51.56547100543242
 20
302.3653763073902
 30
0.0
 40
2.750043017836934
100
AcDbArc
 50
190.9256551652032
 51
215.2240751244628
  0
LINE
  5
215
330
1F
100
AcDbEntity
  8
Section Q
  6
Continuous2
 62
   132
420
    49344
 60
     1
370
    -3
100
AcDbLine
 10
-54.04641281842646
 20
303.2282506423804
 30
0.0
 11
-53.8119883380673
 21
303.9515340782708
 31
0.0
  0
LINE
  5
216
330
1F
100
AcDbEntity
  8
Section Q
  6
Continuous2
 62
   132
420
    49344
 60
     1
370
    -3
100
AcDbLine
 10
-54.26812236694525
 20
303.3432286341684
 30
0.0
 11
-53.8119883380673
 21
303.9515340782708
 31
0.0
  0
LINE
  5
217
330
1F
100
AcDbEntity
  8
Section Q
  6
Continuous2
 62
   132
420
    49344
 60
     1
370
    -3
100
AcDbLine
 10
-54.26812236694525
 20
301.387523980612
 30
0.0
 11
-53.8119883380673
 21
300.7792185365096
 31
0.0
  0
LINE
  5
218
330
1F
100
AcDbEntity
  8
Section Q
  6
Continuous2
 62
   132
420
    49344
 60
     1
370
    -3
100
AcDbLine
 10
-54.04641281842646
 20
301.5025019724
 30
0.0
 11
-53.8119883380673
 21
300.7792185365096
 31
0.0
  0
LINE
  5
219
330
1F
100
AcDbEntity
  8
Section Q
  6
Continuous2
 62
   132
420
    49344
 60
     1
370
    -3
100
AcDbLine
 10
-53.8119883380673
 20
300.7792185365096
 30
0.0
 11
-53.8119883380673
 21
300.7792185365096
 31
0.0
  0
LINE
  5
21A
330
1F
100
AcDbEntity
  8
Section Q
  6
Continuous2
 62
   132
420
    49344
 60
     1
370
    -3
100
AcDbLine
 10
-54.04641281842646
 20
303.2282506423804
 30
0.0
 11
-53.8119883380673
 21
303.9515340782708
 31
0.0
  0
LINE
  5
21B
330
1F
100
AcDbEntity
  8
Section Q
  6
Continuous2
 62
   132
420
    49344
 60
     1
370
    -3
100
AcDbLine
 10
-54.26812236694525
 20
303.3432286341684
 30
0.0
 11
-53.8119883380673
 21
303.9515340782708
 31
0.0
  0
LINE
  5
21C
330
1F
100
AcDbEntity
  8
Section Q
  6
Continuous2
 62
   132
420
    49344
 60
     1
370
    -3
100
AcDbLine
 10
-54.26812236694525
 20
301.387523980612
 30
0.0
 11
-53.8119883380673
 21
300.7792185365096
 31
0.0
  0
LINE
  5
21D
330
1F
100
AcDbEntity
  8
Section Q
  6
Continuous2
 62
   132
420
    49344
 60
     1
370
    -3
100
AcDbLine
 10
-54.04641281842646
 20
301.5025019724
 30
0.0
 11
-53.8119883380673
 21
300.7792185365096
 31
0.0
  0
LINE
  5
21E
330
1F
100
AcDbEntity
  8
Section Q
  6
Continuous2
 62
   132
420
    49344
 60
     1
370
    -3
100
AcDbLine
 10
300.4225049908127
 20
309.9254231862078
 30
0.0
 11
299.5657641539419
 21
309.1727399408597
 31
0.0
  0
LINE
  5
21F
330
1F
100
AcDbEntity
  8
Section Q
  6
Continuous2
 62
   132
420
    49344
 60
     1
370
    -3
100
AcDbLine
 10
300.7296049532051
 20
309.1968958162871
 30
0.0
 11
300.1407838803585
 21
309.6779192146751
 31
0.0
  0
LINE
  5
220
330
1F
100
AcDbEntity
  8
Section Q
  6
Continuous2
 62
   132
420
    49344
 60
     1
370
    -3
100
AcDbLine
 10
300.5419786936425
 20
309.0320581712463
 30
0.0
 11
300.1407838803585
 21
309.6779192146751
 31
0.0
  0
LINE
  5
221
330
1F
100
AcDbEntity
  8
Section Q
  6
Continuous2
 62
   132
420
    49344
 60
     1
370
    -3
100
AcDbLine
 10
309.7867036683814
 20
298.5092606193544
 30
0.0
 11
310.375524741228
 21
298.0282372209664
 31
0.0
  0
LINE
  5
222
330
1F
100
AcDbEntity
  8
Section Q
  6
Continuous2
 62
   132
420
    49344
 60
     1
370
    -3
100
AcDbLine
 10
309.9743299279439
 20
298.6740982643952
 30
0.0
 11
310.375524741228
 21
298.0282372209664
 31
0.0
  0
LINE
  5
223
330
1F
100
AcDbEntity
  8
Section Q
  6
Continuous2
 62
   132
420
    49344
 60
     1
370
    -3
100
AcDbLine
 10
300.6296141334738
 20
309.1215087422351
 30
0.0
 11
300.1407838803585
 21
309.6779192146751
 31
0.0
  0
LINE
  5
224
330
1F
100
AcDbEntity
  8
Section Q
  6
Continuous2
 62
   132
420
    49344
 60
     1
370
    -3
100
AcDbLine
 10
300.7296049532051
 20
309.1968958162871
 30
0.0
 11
300.1407838803585
 21
309.6779192146751
 31
0.0
  0
LINE
  5
225
330
1F
100
AcDbEntity
  8
Section Q
  6
Continuous2
 62
   132
420
    49344
 60
     1
370
    -3
100
AcDbLine
 10
300.5419786936425
 20
309.0320581712463
 30
0.0
 11
300.1407838803585
 21
309.6779192146751
 31
0.0
  0
LINE
  5
226
330
1F
100
AcDbEntity
  8
Section Q
  6
Continuous2
 62
   132
420
    49344
 60
     1
370
    -3
100
AcDbLine
 10
309.7867036683814
 20
298.5092606193544
 30
0.0
 11
310.375524741228
 21
298.0282372209664
 31
0.0
  0
LINE
  5
227
330
1F
100
AcDbEntity
  8
Section Q
  6
Continuous2
 62
   132
420
    49344
 60
     1
370
    -3
100
AcDbLine
 10
309.9743299279439
 20
298.6740982643952
 30
0.0
 11
310.375524741228
 21
298.0282372209664
 31
0.0
  0
TEXT
  5
228
330
1F
100
AcDbEntity
  8
Section Q
  6
Continuous2
 62
   132
420
    49344
 60
     1
370
    -3
100
AcDbText
 10
299.9598005149924
 20
308.0034636782621
 30
0.0
 40
0.75
  1
15.507
 41
0.625
  7
MCStick_A0.625000_S0.000000
100
AcDbText
  0
LINE
  5
229
330
1F
100
AcDbEntity
  8
Section Q
  6
Continuous2
 62
   132
420
    49344
 60
     1
370
    -3
100
AcDbLine
 10
301.9352074847462
 20
307.6354186142891
 30
0.0
 11
310.375524741228
 21
298.0282372209664
 31
0.0
  0
LINE
  5
22A
330
1F
100
AcDbEntity
  8
Section Q
  6
Continuous2
 62
   132
420
    49344
 60
     1
370
    -3
100
AcDbLine
 10
300.7296049532051
 20
309.1968958162871
 30
0.0
 11
300.1407838803585
 21
309.6779192146751
 31
0.0
  0
LINE
  5
22B
330
1F
100
AcDbEntity
  8
Section Q
  6
Continuous2
 62
   132
420
    49344
 60
     1
370
    -3
100
AcDbLine
 10
300.5419786936425
 20
309.0320581712463
 30
0.0
 11
300.1407838803585
 21
309.6779192146751
 31
0.0
  0
LINE
  5
22C
330
1F
100
AcDbEntity
  8
Section Q
  6
Continuous2
 62
   132
420
    49344
 60
     1
370
    -3
100
AcDbLine
 10
309.7867036683814
 20
298.5092606193544
 30
0.0
 11
310.375524741228
 21
298.0282372209664
 31
0.0
  0
LINE
  5
22D
330
1F
100
AcDbEntity
  8
Section Q
  6
Continuous2
 62
   132
420
    49344
 60
     1
370
    -3
100
AcDbLine
 10
309.9743299279439
 20
298.6740982643952
 30
0.0
 11
310.375524741228
 21
298.0282372209664
 31
0.0
  0
LINE
  5
22E
330
1F
100
AcDbEntity
  8
Section Q
  6
Continuous2
 62
   132
420
    49344
 60
     1
370
    -3
100
AcDbLine
 10
310.6572458516822
 20
298.275741192499
 30
0.0
 11
309.8005050148113
 21
297.523057947151
 31
0.0
  0
LINE
  5
22F
330
1F
100
AcDbEntity
  8
Section Q
  6
Continuous2
 62
   132
420
    49344
 60
     1
370
    -3
100
AcDbLine
 10
300.7296049532051
 20
309.1968958162871
 30
0.0
 11
300.1407838803585
 21
309.6779192146751
 31
0.0
  0
LINE
  5
230
330
1F
100
AcDbEntity
  8
Section Q
  6
Continuous2
 62
   132
420
    49344
 60
     1
370
    -3
100
AcDbLine
 10
300.5419786936425
 20
309.0320581712463
 30
0.0
 11
300.1407838803585
 21
309.6779192146751
 31
0.0
  0
LINE
  5
231
330
1F
100
AcDbEntity
  8
Section Q
  6
Continuous2
 62
   132
420
    49344
 60
     1
370
    -3
100
AcDbLine
 10
309.7867036683814
 20
298.5092606193544
 30
0.0
 11
310.375524741228
 21
298.0282372209664
 31
0.0
  0
LINE
  5
232
330
1F
100
AcDbEntity
  8
Section Q
  6
Continuous2
 62
   132
420
    49344
 60
     1
370
    -3
100
AcDbLine
 10
309.9743299279439
 20
298.6740982643952
 30
0.0
 11
310.375524741228
 21
298.0282372209664
 31
0.0
  0
LINE
  5
233
330
1F
100
AcDbEntity
  8
Section Q
  6
Continuous2
 62
   132
420
    49344
 60
     1
370
    -3
100
AcDbLine
 10
718.6511690588975
 20
299.7508977319076
 30
0.0
 11
718.6511690588975
 21
299.7508977319076
 31
0.0
  0
LINE
  5
234
330
1F
100
AcDbEntity
  8
Section Q
  6
Continuous2
 62
   132
420
    49344
 60
     1
370
    -3
100
AcDbLine
 10
719.2643980349668
 20
300.2003907669304
 30
0.0
 11
718.6511690588975
 21
299.7508977319076
 31
0.0
  0
LINE
  5
235
330
1F
100
AcDbEntity
  8
Section Q
  6
Continuous2
 62
   132
420
    49344
 60
     1
370
    -3
100
AcDbLine
 10
719.3769586092843
 20
299.9774441822755
 30
0.0
 11
718.6511690588975
 21
299.7508977319076
 31
0.0
  0
LINE
  5
236
330
1F
100
AcDbEntity
  8
Section Q
  6
Continuous2
 62
   132
420
    49344
 60
     1
370
    -3
100
AcDbLine
 10
719.3769586092843
 20
303.4396392890288
 30
0.0
 11
718.6511690588975
 21
303.6661857393966
 31
0.0
  0
LINE
  5
237
330
1F
100
AcDbEntity
  8
Section Q
  6
Continuous2
 62
   132
420
    49344
 60
     1
370
    -3
100
AcDbLine
 10
719.2643980349668
 20
303.2166927043738
 30
0.0
 11
718.6511690588975
 21
303.6661857393966
 31
0.0
  0
ARC
  5
238
330
1F
100
AcDbEntity
  8
Section Q
  6
Continuous2
 62
   132
420
    49344
 60
     1
370
    -3
100
AcDbCircle
 10
718.0805197946481
 20
301.7085417356521
 30
0.0
 40
2.039120062229058
100
AcDbArc
 50
286.2512967824651
 51
333.0846496455623
  0
LINE
  5
239
330
1F
100
AcDbEntity
  8
Section Q
  6
Continuous2
 62
   132
420
    49344
 60
     1
370
    -3
100
AcDbLine
 10
719.2643980349668
 20
300.2003907669304
 30
0.0
 11
718.6511690588975
 21
299.7508977319076
 31
0.0
  0
LINE
  5
23A
330
1F
100
AcDbEntity
  8
Section Q
  6
Continuous2
 62
   132
420
    49344
 60
     1
370
    -3
100
AcDbLine
 10
719.3769586092843
 20
299.9774441822755
 30
0.0
 11
718.6511690588975
 21
299.7508977319076
 31
0.0
  0
LINE
  5
23B
330
1F
100
AcDbEntity
  8
Section Q
  6
Continuous2
 62
   132
420
    49344
 60
     1
370
    -3
100
AcDbLine
 10
719.3769586092843
 20
303.4396392890288
 30
0.0
 11
718.6511690588975
 21
303.6661857393966
 31
0.0
  0
LINE
  5
23C
330
1F
100
AcDbEntity
  8
Section Q
  6
Continuous2
 62
   132
420
    49344
 60
     1
370
    -3
100
AcDbLine
 10
719.2643980349668
 20
303.2166927043738
 30
0.0
 11
718.6511690588975
 21
303.6661857393966
 31
0.0
  0
TEXT
  5
23D
330
1F
100
AcDbEntity
  8
Section Q
  6
Continuous2
 62
   132
420
    49344
 60
     1
370
    -3
100
AcDbText
 10
718.6110071004355
 20
301.0319964558239
 30
0.0
 40
0.75
  1
147.50°
 41
0.625
  7
MCStick_A0.625000_S0.000000
100
AcDbText
  0
ARC
  5
23E
330
1F
100
AcDbEntity
  8
Section Q
  6
Continuous2
 62
   132
420
    49344
 60
     1
370
    -3
100
AcDbCircle
 10
718.0805197946481
 20
301.7085417356521
 30
0.0
 40
2.039120062229058
100
AcDbArc
 50
9.027785074085585
 51
73.74870321753536
  0
LINE
  5
23F
330
1F
100
AcDbEntity
  8
Section Q
  6
Continuous2
 62
   132
420
    49344
 60
     1
370
    -3
100
AcDbLine
 10
719.2643980349668
 20
300.2003907669304
 30
0.0
 11
718.6511690588975
 21
299.7508977319076
 31
0.0
  0
LINE
  5
240
330
1F
100
AcDbEntity
  8
Section Q
  6
Continuous2
 62
   132
420
    49344
 60
     1
370
    -3
100
AcDbLine
 10
719.3769586092843
 20
299.9774441822755
 30
0.0
 11
718.6511690588975
 21
299.7508977319076
 31
0.0
  0
LINE
  5
241
330
1F
100
AcDbEntity
  8
Section Q
  6
Continuous2
 62
   132
420
    49344
 60
     1
370
    -3
100
AcDbLine
 10
719.3769586092843
 20
303.4396392890288
 30
0.0
 11
718.6511690588975
 21
303.6661857393966
 31
0.0
  0
LINE
  5
242
330
1F
100
AcDbEntity
  8
Section Q
  6
Continuous2
 62
   132
420
    49344
 60
     1
370
    -3
100
AcDbLine
 10
719.2643980349668
 20
303.2166927043738
 30
0.0
 11
718.6511690588975
 21
303.6661857393966
 31
0.0
  0
LINE
  5
243
330
1F
100
AcDbEntity
  8
Section Q
  6
Continuous2
 62
   132
420
    49344
 60
     1
370
    -3
100
AcDbLine
 10
718.6511690588975
 20
303.6661857393966
 30
0.0
 11
718.6511690588975
 21
303.6661857393966
 31
0.0
  0
LINE
  5
244
330
1F
100
AcDbEntity
  8
Section Q
  6
Continuous2
 62
   132
420
    49344
 60
     1
370
    -3
100
AcDbLine
 10
719.2643980349668
 20
300.2003907669304
 30
0.0
 11
718.6511690588975
 21
299.7508977319076
 31
0.0
  0
LINE
  5
245
330
1F
100
AcDbEntity
  8
Section Q
  6
Continuous2
 62
   132
420
    49344
 60
     1
370
    -3
100
AcDbLine
 10
719.3769586092843
 20
299.9774441822755
 30
0.0
 11
718.6511690588975
 21
299.7508977319076
 31
0.0
  0
LINE
  5
246
330
1F
100
AcDbEntity
  8
Section Q
  6
Continuous2
 62
   132
420
    49344
 60
     1
370
    -3
100
AcDbLine
 10
719.3769586092843
 20
303.4396392890288
 30
0.0
 11
718.6511690588975
 21
303.6661857393966
 31
0.0
  0
LINE
  5
247
330
1F
100
AcDbEntity
  8
Section Q
  6
Continuous2
 62
   132
420
    49344
 60
     1
370
    -3
100
AcDbLine
 10
719.2643980349668
 20
303.2166927043738
 30
0.0
 11
718.6511690588975
 21
303.6661857393966
 31
0.0
  0
LINE
  5
248
330
1F
100
AcDbEntity
  8
Section Q
  6
Continuous2
 62
   132
420
    49344
 60
     1
370
    -3
100
AcDbLine
 10
1194.989148309156
 20
295.0542716316676
 30
0.0
 11
1195.795222211407
 21
294.0530879686245
 31
0.0
  0
LINE
  5
249
330
1F
100
AcDbEntity
  8
Section Q
  6
Continuous2
 62
   132
420
    49344
 60
     1
370
    -3
100
AcDbLine
 10
1195.730197207131
 20
295.3297875956973
 30
0.0
 11
1195.224319883296
 21
294.7621769026559
 31
0.0
  0
LINE
  5
24A
330
1F
100
AcDbEntity
  8
Section Q
  6
Continuous2
 62
   132
420
    49344
 60
     1
370
    -3
100
AcDbLine
 10
1195.886821475508
 20
295.1352525061754
 30
0.0
 11
1195.224319883296
 21
294.7621769026559
 31
0.0
  0
LINE
  5
24B
330
1F
100
AcDbEntity
  8
Section Q
  6
Continuous2
 62
   132
420
    49344
 60
     1
370
    -3
100
AcDbLine
 10
1208.714290192947
 20
305.4629157978823
 30
0.0
 11
1209.220167516781
 21
306.0305264909236
 31
0.0
  0
LINE
  5
24C
330
1F
100
AcDbEntity
  8
Section Q
  6
Continuous2
 62
   132
420
    49344
 60
     1
370
    -3
100
AcDbLine
 10
1208.557665924569
 20
305.657450887404
 30
0.0
 11
1209.220167516781
 21
306.0305264909236
 31
0.0
  0
LINE
  5
24D
330
1F
100
AcDbEntity
  8
Section Q
  6
Continuous2
 62
   132
420
    49344
 60
     1
370
    -3
100
AcDbLine
 10
1206.83742232908
 20
304.112128516188
 30
0.0
 11
1195.224319883296
 21
294.7621769026559
 31
0.0
  0
LINE
  5
24E
330
1F
100
AcDbEntity
  8
Section Q
  6
Continuous2
 62
   132
420
    49344
 60
     1
370
    -3
100
AcDbLine
 10
1195.730197207131
 20
295.3297875956973
 30
0.0
 11
1195.224319883296
 21
294.7621769026559
 31
0.0
  0
LINE
  5
24F
330
1F
100
AcDbEntity
  8
Section Q
  6
Continuous2
 62
   132
420
    49344
 60
     1
370
    -3
100
AcDbLine
 10
1195.886821475508
 20
295.1352525061754
 30
0.0
 11
1195.224319883296
 21
294.7621769026559
 31
0.0
  0
LINE
  5
250
330
1F
100
AcDbEntity
  8
Section Q
  6
Continuous2
 62
   132
420
    49344
 60
     1
370
    -3
100
AcDbLine
 10
1208.714290192947
 20
305.4629157978823
 30
0.0
 11
1209.220167516781
 21
306.0305264909236
 31
0.0
  0
LINE
  5
251
330
1F
100
AcDbEntity
  8
Section Q
  6
Continuous2
 62
   132
420
    49344
 60
     1
370
    -3
100
AcDbLine
 10
1208.557665924569
 20
305.657450887404
 30
0.0
 11
1209.220167516781
 21
306.0305264909236
 31
0.0
  0
TEXT
  5
252
330
1F
100
AcDbEntity
  8
Section Q
  6
Continuous2
 62
   132
420
    49344
 60
     1
370
    -3
100
AcDbText
 10
1206.412768583702
 20
304.4600921101953
 30
0.0
 40
0.75
  1
17.968
 41
0.625
  7
MCStick_A0.625000_S0.000000
100
AcDbText
  0
LINE
  5
253
330
1F
100
AcDbEntity
  8
Section Q
  6
Continuous2
 62
   132
420
    49344
 60
     1
370
    -3
100
AcDbLine
 10
1208.633335426561
 20
305.5580557042025
 30
0.0
 11
1209.220167516781
 21
306.0305264909236
 31
0.0
  0
LINE
  5
254
330
1F
100
AcDbEntity
  8
Section Q
  6
Continuous2
 62
   132
420
    49344
 60
     1
370
    -3
100
AcDbLine
 10
1195.730197207131
 20
295.3297875956973
 30
0.0
 11
1195.224319883296
 21
294.7621769026559
 31
0.0
  0
LINE
  5
255
330
1F
100
AcDbEntity
  8
Section Q
  6
Continuous2
 62
   132
420
    49344
 60
     1
370
    -3
100
AcDbLine
 10
1195.886821475508
 20
295.1352525061754
 30
0.0
 11
1195.224319883296
 21
294.7621769026559
 31
0.0
  0
LINE
  5
256
330
1F
100
AcDbEntity
  8
Section Q
  6
Continuous2
 62
   132
420
    49344
 60
     1
370
    -3
100
AcDbLine
 10
1208.714290192947
 20
305.4629157978823
 30
0.0
 11
1209.220167516781
 21
306.0305264909236
 31
0.0
  0
LINE
  5
257
330
1F
100
AcDbEntity
  8
Section Q
  6
Continuous2
 62
   132
420
    49344
 60
     1
370
    -3
100
AcDbLine
 10
1208.557665924569
 20
305.657450887404
 30
0.0
 11
1209.220167516781
 21
306.0305264909236
 31
0.0
  0
LINE
  5
258
330
1F
100
AcDbEntity
  8
Section Q
  6
Continuous2
 62
   132
420
    49344
 60
     1
370
    -3
100
AcDbLine
 10
1208.984995942641
 20
306.3226212199353
 30
0.0
 11
1209.791069844892
 21
305.3214375568923
 31
0.0
  0
LINE
  5
259
330
1F
100
AcDbEntity
  8
Section Q
  6
Continuous2
 62
   132
420
    49344
 60
     1
370
    -3
100
AcDbLine
 10
1195.730197207131
 20
295.3297875956973
 30
0.0
 11
1195.224319883296
 21
294.7621769026559
 31
0.0
  0
LINE
  5
25A
330
1F
100
AcDbEntity
  8
Section Q
  6
Continuous2
 62
   132
420
    49344
 60
     1
370
    -3
100
AcDbLine
 10
1195.886821475508
 20
295.1352525061754
 30
0.0
 11
1195.224319883296
 21
294.7621769026559
 31
0.0
  0
LINE
  5
25B
330
1F
100
AcDbEntity
  8
Section Q
  6
Continuous2
 62
   132
420
    49344
 60
     1
370
    -3
100
AcDbLine
 10
1208.714290192947
 20
305.4629157978823
 30
0.0
 11
1209.220167516781
 21
306.0305264909236
 31
0.0
  0
LINE
  5
25C
330
1F
100
AcDbEntity
  8
Section Q
  6
Continuous2
 62
   132
420
    49344
 60
     1
370
    -3
100
AcDbLine
 10
1208.557665924569
 20
305.657450887404
 30
0.0
 11
1209.220167516781
 21
306.0305264909236
 31
0.0
  0
LINE
  5
25D
330
1F
100
AcDbEntity
  8
Section B
  6
Continuous2
 62
    18
420
        0
 60
     1
370
    -3
100
AcDbLine
 10
-189.5529925661749
 20
248.9237273303124
 30
0.0
 11
-189.5529925661749
 21
248.2238321112748
 31
0.0
  0
LINE
  5
25E
330
1F
100
AcDbEntity
  8
Section B
  6
Continuous2
 62
    18
420
        0
 60
     1
370
    -3
100
AcDbLine
 10
-189.4904925661749
 20
248.8768523303124
 30
0.0
 11
-189.5529925661749
 21
248.8612273303124
 31
0.0
  0
LINE
  5
25F
330
1F
100
AcDbEntity
  8
Section B
  6
Continuous2
 62
    18
420
        0
 60
     1
370
    -3
100
AcDbLine
 10
-189.4904925661749
 20
248.8456023303124
 30
0.0
 11
-189.5529925661749
 21
248.8612273303124
 31
0.0
  0
LINE
  5
260
330
1F
100
AcDbEntity
  8
Section B
  6
Continuous2
 62
    18
420
        0
 60
     1
370
    -3
100
AcDbLine
 10
-184.6154925661749
 20
248.8456023303124
 30
0.0
 11
-184.5529925661749
 21
248.8612273303124
 31
0.0
  0
LINE
  5
261
330
1F
100
AcDbEntity
  8
Section B
  6
Continuous2
 62
    18
420
        0
 60
     1
370
    -3
100
AcDbLine
 10
-184.6154925661749
 20
248.8768523303124
 30
0.0
 11
-184.5529925661749
 21
248.8612273303124
 31
0.0
  0
LINE
  5
262
330
1F
100
AcDbEntity
  8
Section B
  6
Continuous2
 62
    18
420
        0
 60
     1
370
    -3
100
AcDbLine
 10
-187.2717425661749
 20
248.8612273303124
 30
0.0
 11
-189.5529925661749
 21
248.8612273303124
 31
0.0
  0
LINE
  5
263
330
1F
100
AcDbEntity
  8
Section B
  6
Continuous2
 62
    18
420
        0
 60
     1
370
    -3
100
AcDbLine
 10
-189.4904925661749
 20
248.8768523303124
 30
0.0
 11
-189.5529925661749
 21
248.8612273303124
 31
0.0
  0
LINE
  5
264
330
1F
100
AcDbEntity
  8
Section B
  6
Continuous2
 62
    18
420
        0
 60
     1
370
    -3
100
AcDbLine
 10
-189.4904925661749
 20
248.8456023303124
 30
0.0
 11
-189.5529925661749
 21
248.8612273303124
 31
0.0
  0
LINE
  5
265
330
1F
100
AcDbEntity
  8
Section B
  6
Continuous2
 62
    18
420
        0
 60
     1
370
    -3
100
AcDbLine
 10
-184.6154925661749
 20
248.8456023303124
 30
0.0
 11
-184.5529925661749
 21
248.8612273303124
 31
0.0
  0
LINE
  5
266
330
1F
100
AcDbEntity
  8
Section B
  6
Continuous2
 62
    18
420
        0
 60
     1
370
    -3
100
AcDbLine
 10
-184.6154925661749
 20
248.8768523303124
 30
0.0
 11
-184.5529925661749
 21
248.8612273303124
 31
0.0
  0
TEXT
  5
267
330
1F
100
AcDbEntity
  8
Section B
  6
Continuous2
 62
    18
420
        0
 60
     1
370
    -3
100
AcDbText
 10
-187.0842425661749
 20
248.7987273303124
 30
0.0
 40
0.125
  1
5
 41
0.5
  7
MCStick_A0.500000_S0.000000
100
AcDbText
  0
LINE
  5
268
330
1F
100
AcDbEntity
  8
Section B
  6
Continuous2
 62
    18
420
        0
 60
     1
370
    -3
100
AcDbLine
 10
-186.8342425661749
 20
248.8612273303124
 30
0.0
 11
-184.5529925661749
 21
248.8612273303124
 31
0.0
  0
LINE
  5
269
330
1F
100
AcDbEntity
  8
Section B
  6
Continuous2
 62
    18
420
        0
 60
     1
370
    -3
100
AcDbLine
 10
-189.4904925661749
 20
248.8768523303124
 30
0.0
 11
-189.5529925661749
 21
248.8612273303124
 31
0.0
  0
LINE
  5
26A
330
1F
100
AcDbEntity
  8
Section B
  6
Continuous2
 62
    18
420
        0
 60
     1
370
    -3
100
AcDbLine
 10
-189.4904925661749
 20
248.8456023303124
 30
0.0
 11
-189.5529925661749
 21
248.8612273303124
 31
0.0
  0
LINE
  5
26B
330
1F
100
AcDbEntity
  8
Section B
  6
Continuous2
 62
    18
420
        0
 60
     1
370
    -3
100
AcDbLine
 10
-184.6154925661749
 20
248.8456023303124
 30
0.0
 11
-184.5529925661749
 21
248.8612273303124
 31
0.0
  0
LINE
  5
26C
330
1F
100
AcDbEntity
  8
Section B
  6
Continuous2
 62
    18
420
        0
 60
     1
370
    -3
100
AcDbLine
 10
-184.6154925661749
 20
248.8768523303124
 30
0.0
 11
-184.5529925661749
 21
248.8612273303124
 31
0.0
  0
LINE
  5
26D
330
1F
100
AcDbEntity
  8
Section B
  6
Continuous2
 62
    18
420
        0
 60
     1
370
    -3
100
AcDbLine
 10
-184.5529925661749
 20
248.9237273303124
 30
0.0
 11
-184.5529925661749
 21
248.4113321112748
 31
0.0
  0
LINE
  5
26E
330
1F
100
AcDbEntity
  8
Section B
  6
Continuous2
 62
    18
420
        0
 60
     1
370
    -3
100
AcDbLine
 10
-189.4904925661749
 20
248.8768523303124
 30
0.0
 11
-189.5529925661749
 21
248.8612273303124
 31
0.0
  0
LINE
  5
26F
330
1F
100
AcDbEntity
  8
Section B
  6
Continuous2
 62
    18
420
        0
 60
     1
370
    -3
100
AcDbLine
 10
-189.4904925661749
 20
248.8456023303124
 30
0.0
 11
-189.5529925661749
 21
248.8612273303124
 31
0.0
  0
LINE
  5
270
330
1F
100
AcDbEntity
  8
Section B
  6
Continuous2
 62
    18
420
        0
 60
     1
370
    -3
100
AcDbLine
 10
-184.6154925661749
 20
248.8456023303124
 30
0.0
 11
-184.5529925661749
 21
248.8612273303124
 31
0.0
  0
LINE
  5
271
330
1F
100
AcDbEntity
  8
Section B
  6
Continuous2
 62
    18
420
        0
 60
     1
370
    -3
100
AcDbLine
 10
-184.6154925661749
 20
248.8768523303124
 30
0.0
 11
-184.5529925661749
 21
248.8612273303124
 31
0.0
  0
LINE
  5
272
330
1F
100
AcDbEntity
  8
Section C
  6
Continuous2
 62
   132
420
    49344
370
    -3
100
AcDbLine
 10
309.4191196929598
 20
-115.1582249225999
 30
0.0
 11
309.4191196929598
 21
-104.1582249225999
 31
0.0
  0
LINE
  5
273
330
1F
100
AcDbEntity
  8
Section C
  6
Continuous2
 62
   132
420
    49344
370
    -3
100
AcDbLine
 10
300.9191196929598
 20
-115.1582249225999
 30
0.0
 11
300.9191196929598
 21
-104.1582249225999
 31
0.0
  0
LINE
  5
274
330
1F
100
AcDbEntity
  8
Section C
  6
Continuous2
 62
   132
420
    49344
370
    -3
100
AcDbLine
 10
300.9191196929598
 20
-104.1582249225999
 30
0.0
 11
309.4191196929598
 21
-104.1582249225999
 31
0.0
  0
LINE
  5
275
330
1F
100
AcDbEntity
  8
Section C
  6
Continuous2
 62
   132
420
    49344
370
    -3
100
AcDbLine
 10
300.9191196929598
 20
-115.1582249225999
 30
0.0
 11
309.4191196929598
 21
-115.1582249225999
 31
0.0
  0
LINE
  5
276
330
1F
100
AcDbEntity
  8
Section C
  6
Continuous2
 62
   132
420
    49344
370
    -3
100
AcDbLine
 10
307.3952547473893
 20
-114.2832277945011
 30
0.0
 11
309.0441224490417
 21
-114.2832277945011
 31
0.0
  0
LINE
  5
277
330
1F
100
AcDbEntity
  8
Section C
  6
Continuous2
 62
   132
420
    49344
370
    -3
100
AcDbLine
 10
307.3952548419022
 20
-114.5332277945011
 30
0.0
 11
309.0441224490417
 21
-114.5332277945011
 31
0.0
  0
TEXT
  5
278
330
1F
100
AcDbEntity
  8
Section C
  6
Continuous2
 62
   132
420
    49344
370
    -3
100
AcDbText
 10
304.875220883436
 20
-114.7475106368856
 30
0.0
 40
0.125
  1
Full Scale
 41
0.625
  7
MCStick_A0.625000_S0.000000
 72
     1
 11
305.1691196929598
 21
-114.7832249225999
 31
0.0
100
AcDbText
 73
     1
  0
MTEXT
  5
279
330
1F
100
AcDbEntity
  8
Section C
  6
Continuous2
 62
   132
420
    49344
370
    -3
100
AcDbMText
 10
306.1691125219197
 20
-114.7848037515685
 30
0.0
 40
0.125
 41
2.298651960784314
 71
     7
 72
     1
  1
E.F. San Juan, Inc^M\PDate:  4/06/2016^M\PDrawn By: JT^M\PApproved By:^M\PApproved By:^M\PPage:     of  
  7
MCStick_A0.875000_S0.000000
 73
     1
 44
0.75
  0
TEXT
  5
27B
330
1F
100
AcDbEntity
  8
Section C
  6
Continuous2
 62
   132
420
    49344
370
    -3
100
AcDbText
 10
304.9514753479679
 20
-105.28323188377
 30
0.0
 40
0.125
  1
QR4551
 50
359.9999999999999
 41
0.625
  7
MCStick_A0.625000_S0.000000
 72
     1
 11
305.1691092765393
 21
-105.28323188377
 31
0.0
100
AcDbText
  0
LINE
  5
27C
330
1F
100
AcDbEntity
  8
D6
  6
Continuous2
 62
    18
420
        0
370
    -3
100
AcDbLine
 10
304.6168415384221
 20
-110.2185843664577
 30
0.0
 11
305.3668415384221
 21
-110.2185843664577
 31
0.0
  0
LINE
  5
27D
330
1F
100
AcDbEntity
  8
D6
  6
Continuous2
 62
    18
420
        0
370
    -3
100
AcDbLine
 10
304.6168416158075
 20
-110.2185848601609
 30
0.0
 11
304.6168416158075
 21
-109.4685848601609
 31
0.0
  0
LINE
  5
27E
330
1F
100
AcDbEntity
  8
D6
  6
Continuous2
 62
    18
420
        0
370
    -3
100
AcDbLine
 10
305.3668416158075
 20
-110.2185848601609
 30
0.0
 11
305.3668416158075
 21
-110.0779598601609
 31
0.0
  0
LINE
  5
27F
330
1F
100
AcDbEntity
  8
D6
  6
Continuous2
 62
    18
420
        0
370
    -3
100
AcDbLine
 10
305.3668416158075
 20
-110.0779598601609
 30
0.0
 11
305.2262166158075
 21
-110.0779598601609
 31
0.0
  0
LINE
  5
280
330
1F
100
AcDbEntity
  8
D6
  6
Continuous2
 62
    18
420
        0
370
    -3
100
AcDbLine
 10
304.6168416158075
 20
-109.4685848601609
 30
0.0
 11
304.7574666158075
 21
-109.4685848601609
 31
0.0
  0
LINE
  5
281
330
1F
100
AcDbEntity
  8
D6
  6
Continuous2
 62
    18
420
        0
370
    -3
100
AcDbLine
 10
304.7574666158075
 20
-109.4685848601609
 30
0.0
 11
304.7574666158075
 21
-109.6092098601609
 31
0.0
  0
ARC
  5
282
330
1F
100
AcDbEntity
  8
D6
  6
Continuous2
 62
    18
420
        0
370
    -3
100
AcDbCircle
 10
304.7574666158074
 20
-110.077959860161
 30
0.0
 40
0.4687500000000391
100
AcDbArc
 50
0.000000000003474
 51
89.99999999999254
  0
LINE
  5
283
330
1F
100
AcDbEntity
  8
D6
  6
Continuous2
 62
   176
420
      128
370
    -3
100
AcDbLine
 10
304.6168415384221
 20
-110.5524935164904
 30
0.0
 11
304.6168415384221
 21
-110.3435843664577
 31
0.0
  0
LINE
  5
284
330
1F
100
AcDbEntity
  8
D6
  6
Continuous2
 62
   176
420
      128
370
    -3
100
AcDbLine
 10
304.6480915384221
 20
-110.4691810164904
 30
0.0
 11
304.6168415384221
 21
-110.4899935164904
 31
0.0
  0
LINE
  5
285
330
1F
100
AcDbEntity
  8
D6
  6
Continuous2
 62
   176
420
      128
370
    -3
100
AcDbLine
 10
304.6480915384221
 20
-110.5108060164904
 30
0.0
 11
304.6168415384221
 21
-110.4899935164904
 31
0.0
  0
LINE
  5
286
330
1F
100
AcDbEntity
  8
D6
  6
Continuous2
 62
   176
420
      128
370
    -3
100
AcDbLine
 10
305.3355915384221
 20
-110.5108060164904
 30
0.0
 11
305.3668415384221
 21
-110.4899935164904
 31
0.0
  0
LINE
  5
287
330
1F
100
AcDbEntity
  8
D6
  6
Continuous2
 62
   176
420
      128
370
    -3
100
AcDbLine
 10
305.3355915384221
 20
-110.4691810164904
 30
0.0
 11
305.3668415384221
 21
-110.4899935164904
 31
0.0
  0
LINE
  5
288
330
1F
100
AcDbEntity
  8
D6
  6
Continuous2
 62
   176
420
      128
370
    -3
100
AcDbLine
 10
304.657527812932
 20
-110.4899935164904
 30
0.0
 11
304.6168415384221
 21
-110.4899935164904
 31
0.0
  0
LINE
  5
289
330
1F
100
AcDbEntity
  8
D6
  6
Continuous2
 62
   176
420
      128
370
    -3
100
AcDbLine
 10
304.6480915384221
 20
-110.4691810164904
 30
0.0
 11
304.6168415384221
 21
-110.4899935164904
 31
0.0
  0
LINE
  5
28A
330
1F
100
AcDbEntity
  8
D6
  6
Continuous2
 62
   176
420
      128
370
    -3
100
AcDbLine
 10
304.6480915384221
 20
-110.5108060164904
 30
0.0
 11
304.6168415384221
 21
-110.4899935164904
 31
0.0
  0
LINE
  5
28B
330
1F
100
AcDbEntity
  8
D6
  6
Continuous2
 62
   176
420
      128
370
    -3
100
AcDbLine
 10
305.3355915384221
 20
-110.5108060164904
 30
0.0
 11
305.3668415384221
 21
-110.4899935164904
 31
0.0
  0
LINE
  5
28C
330
1F
100
AcDbEntity
  8
D6
  6
Continuous2
 62
   176
420
      128
370
    -3
100
AcDbLine
 10
305.3355915384221
 20
-110.4691810164904
 30
0.0
 11
305.3668415384221
 21
-110.4899935164904
 31
0.0
  0
TEXT
  5
28D
330
1F
100
AcDbEntity
  8
D6
  6
Continuous2
 62
   176
420
      128
370
    -3
100
AcDbText
 10
304.845027812932
 20
-110.5524935164904
 30
0.0
 40
0.125
  1
3/4"
 41
0.5
  7
MCStick_A0.500000_S0.000000
100
AcDbText
  0
LINE
  5
28E
330
1F
100
AcDbEntity
  8
D6
  6
Continuous2
 62
   176
420
      128
370
    -3
100
AcDbLine
 10
305.3261552639123
 20
-110.4899935164904
 30
0.0
 11
305.3668415384221
 21
-110.4899935164904
 31
0.0
  0
LINE
  5
28F
330
1F
100
AcDbEntity
  8
D6
  6
Continuous2
 62
   176
420
      128
370
    -3
100
AcDbLine
 10
304.6480915384221
 20
-110.4691810164904
 30
0.0
 11
304.6168415384221
 21
-110.4899935164904
 31
0.0
  0
LINE
  5
290
330
1F
100
AcDbEntity
  8
D6
  6
Continuous2
 62
   176
420
      128
370
    -3
100
AcDbLine
 10
304.6480915384221
 20
-110.5108060164904
 30
0.0
 11
304.6168415384221
 21
-110.4899935164904
 31
0.0
  0
LINE
  5
291
330
1F
100
AcDbEntity
  8
D6
  6
Continuous2
 62
   176
420
      128
370
    -3
100
AcDbLine
 10
305.3355915384221
 20
-110.5108060164904
 30
0.0
 11
305.3668415384221
 21
-110.4899935164904
 31
0.0
  0
LINE
  5
292
330
1F
100
AcDbEntity
  8
D6
  6
Continuous2
 62
   176
420
      128
370
    -3
100
AcDbLine
 10
305.3355915384221
 20
-110.4691810164904
 30
0.0
 11
305.3668415384221
 21
-110.4899935164904
 31
0.0
  0
LINE
  5
293
330
1F
100
AcDbEntity
  8
D6
  6
Continuous2
 62
   176
420
      128
370
    -3
100
AcDbLine
 10
305.3668415384221
 20
-110.5524935164904
 30
0.0
 11
305.3668415384221
 21
-110.3435843664577
 31
0.0
  0
LINE
  5
294
330
1F
100
AcDbEntity
  8
D6
  6
Continuous2
 62
   176
420
      128
370
    -3
100
AcDbLine
 10
304.6480915384221
 20
-110.4691810164904
 30
0.0
 11
304.6168415384221
 21
-110.4899935164904
 31
0.0
  0
LINE
  5
295
330
1F
100
AcDbEntity
  8
D6
  6
Continuous2
 62
   176
420
      128
370
    -3
100
AcDbLine
 10
304.6480915384221
 20
-110.5108060164904
 30
0.0
 11
304.6168415384221
 21
-110.4899935164904
 31
0.0
  0
LINE
  5
296
330
1F
100
AcDbEntity
  8
D6
  6
Continuous2
 62
   176
420
      128
370
    -3
100
AcDbLine
 10
305.3355915384221
 20
-110.5108060164904
 30
0.0
 11
305.3668415384221
 21
-110.4899935164904
 31
0.0
  0
LINE
  5
297
330
1F
100
AcDbEntity
  8
D6
  6
Continuous2
 62
   176
420
      128
370
    -3
100
AcDbLine
 10
305.3355915384221
 20
-110.4691810164904
 30
0.0
 11
305.3668415384221
 21
-110.4899935164904
 31
0.0
  0
LINE
  5
298
330
1F
100
AcDbEntity
  8
D6
  6
Continuous2
 62
   176
420
      128
370
    -3
100
AcDbLine
 10
304.1923429678992
 20
-110.2185848601609
 30
0.0
 11
304.4918416158075
 21
-110.2185848601609
 31
0.0
  0
LINE
  5
299
330
1F
100
AcDbEntity
  8
D6
  6
Continuous2
 62
   176
420
      128
370
    -3
100
AcDbLine
 10
304.2340304678992
 20
-110.1873348601609
 30
0.0
 11
304.2548429678992
 21
-110.2185848601609
 31
0.0
  0
LINE
  5
29A
330
1F
100
AcDbEntity
  8
D6
  6
Continuous2
 62
   176
420
      128
370
    -3
100
AcDbLine
 10
304.2756554678991
 20
-110.1873348601609
 30
0.0
 11
304.2548429678992
 21
-110.2185848601609
 31
0.0
  0
LINE
  5
29B
330
1F
100
AcDbEntity
  8
D6
  6
Continuous2
 62
   176
420
      128
370
    -3
100
AcDbLine
 10
304.2756554678991
 20
-109.4998348601609
 30
0.0
 11
304.2548429678992
 21
-109.4685848601609
 31
0.0
  0
LINE
  5
29C
330
1F
100
AcDbEntity
  8
D6
  6
Continuous2
 62
   176
420
      128
370
    -3
100
AcDbLine
 10
304.2340304678992
 20
-109.4998348601609
 30
0.0
 11
304.2548429678992
 21
-109.4685848601609
 31
0.0
  0
LINE
  5
29D
330
1F
100
AcDbEntity
  8
D6
  6
Continuous2
 62
   176
420
      128
370
    -3
100
AcDbLine
 10
304.2548429678992
 20
-110.1077074563148
 30
0.0
 11
304.2548429678992
 21
-110.2185848601609
 31
0.0
  0
LINE
  5
29E
330
1F
100
AcDbEntity
  8
D6
  6
Continuous2
 62
   176
420
      128
370
    -3
100
AcDbLine
 10
304.2340304678992
 20
-110.1873348601609
 30
0.0
 11
304.2548429678992
 21
-110.2185848601609
 31
0.0
  0
LINE
  5
29F
330
1F
100
AcDbEntity
  8
D6
  6
Continuous2
 62
   176
420
      128
370
    -3
100
AcDbLine
 10
304.2756554678991
 20
-110.1873348601609
 30
0.0
 11
304.2548429678992
 21
-110.2185848601609
 31
0.0
  0
LINE
  5
2A0
330
1F
100
AcDbEntity
  8
D6
  6
Continuous2
 62
   176
420
      128
370
    -3
100
AcDbLine
 10
304.2756554678991
 20
-109.4998348601609
 30
0.0
 11
304.2548429678992
 21
-109.4685848601609
 31
0.0
  0
LINE
  5
2A1
330
1F
100
AcDbEntity
  8
D6
  6
Continuous2
 62
   176
420
      128
370
    -3
100
AcDbLine
 10
304.2340304678992
 20
-109.4998348601609
 30
0.0
 11
304.2548429678992
 21
-109.4685848601609
 31
0.0
  0
TEXT
  5
2A2
330
1F
100
AcDbEntity
  8
D6
  6
Continuous2
 62
   176
420
      128
370
    -3
100
AcDbText
 10
304.108029242409
 20
-109.9060848601609
 30
0.0
 40
0.125
  1
3/4"
 41
0.5
  7
MCStick_A0.500000_S0.000000
100
AcDbText
  0
LINE
  5
2A3
330
1F
100
AcDbEntity
  8
D6
  6
Continuous2
 62
   176
420
      128
370
    -3
100
AcDbLine
 10
304.2548429678992
 20
-109.5794622640071
 30
0.0
 11
304.2548429678992
 21
-109.4685848601609
 31
0.0
  0
LINE
  5
2A4
330
1F
100
AcDbEntity
  8
D6
  6
Continuous2
 62
   176
420
      128
370
    -3
100
AcDbLine
 10
304.2340304678992
 20
-110.1873348601609
 30
0.0
 11
304.2548429678992
 21
-110.2185848601609
 31
0.0
  0
LINE
  5
2A5
330
1F
100
AcDbEntity
  8
D6
  6
Continuous2
 62
   176
420
      128
370
    -3
100
AcDbLine
 10
304.2756554678991
 20
-110.1873348601609
 30
0.0
 11
304.2548429678992
 21
-110.2185848601609
 31
0.0
  0
LINE
  5
2A6
330
1F
100
AcDbEntity
  8
D6
  6
Continuous2
 62
   176
420
      128
370
    -3
100
AcDbLine
 10
304.2756554678991
 20
-109.4998348601609
 30
0.0
 11
304.2548429678992
 21
-109.4685848601609
 31
0.0
  0
LINE
  5
2A7
330
1F
100
AcDbEntity
  8
D6
  6
Continuous2
 62
   176
420
      128
370
    -3
100
AcDbLine
 10
304.2340304678992
 20
-109.4998348601609
 30
0.0
 11
304.2548429678992
 21
-109.4685848601609
 31
0.0
  0
LINE
  5
2A8
330
1F
100
AcDbEntity
  8
D6
  6
Continuous2
 62
   176
420
      128
370
    -3
100
AcDbLine
 10
304.1923429678992
 20
-109.4685848601609
 30
0.0
 11
304.4918416158075
 21
-109.4685848601609
 31
0.0
  0
LINE
  5
2A9
330
1F
100
AcDbEntity
  8
D6
  6
Continuous2
 62
   176
420
      128
370
    -3
100
AcDbLine
 10
304.2340304678992
 20
-110.1873348601609
 30
0.0
 11
304.2548429678992
 21
-110.2185848601609
 31
0.0
  0
LINE
  5
2AA
330
1F
100
AcDbEntity
  8
D6
  6
Continuous2
 62
   176
420
      128
370
    -3
100
AcDbLine
 10
304.2756554678991
 20
-110.1873348601609
 30
0.0
 11
304.2548429678992
 21
-110.2185848601609
 31
0.0
  0
LINE
  5
2AB
330
1F
100
AcDbEntity
  8
D6
  6
Continuous2
 62
   176
420
      128
370
    -3
100
AcDbLine
 10
304.2756554678991
 20
-109.4998348601609
 30
0.0
 11
304.2548429678992
 21
-109.4685848601609
 31
0.0
  0
LINE
  5
2AC
330
1F
100
AcDbEntity
  8
D6
  6
Continuous2
 62
   176
420
      128
370
    -3
100
AcDbLine
 10
304.2340304678992
 20
-109.4998348601609
 30
0.0
 11
304.2548429678992
 21
-109.4685848601609
 31
0.0
  0
VIEWPORT
  5
2AD
102
{ACAD_XDICTIONARY
360
2AF
102
}
330
23
100
AcDbEntity
 67
     1
  8
0
100
AcDbViewport
 10
5.25
 20
4.0
 30
0.0
 40
11.638
 41
8.993
 68
     1
 69
     1
 12
5.25
 22
4.0
 13
0.0
 23
0.0
 14
0.5
 24
0.5
 15
0.5
 25
0.5
 16
0.0
 26
0.0
 36
1.0
 17
0.0
 27
0.0
 37
0.0
 42
50.0
 43
0.0
 44
0.0
 45
8.993
 50
0.0
 51
0.0
 72
   100
 90
   557152
  1

281
     0
 71
     1
 74
     0
110
0.0
120
0.0
130
0.0
111
1.0
121
0.0
131
0.0
112
0.0
122
1.0
132
0.0
 79
     0
146
0.0
170
     0
  0
ENDSEC
  0
SECTION
  2
OBJECTS
  0
DICTIONARY
  5
C
330
0
100
AcDbDictionary
281
     1
  3
ACAD_DETAILVIEWSTYLE
350
2F6
  3
ACAD_GROUP
350
D
  3
ACAD_LAYOUT
350
1A
  3
ACAD_MATERIAL
350
43
  3
ACAD_MLEADERSTYLE
350
6B
  3
ACAD_MLINESTYLE
350
17
  3
ACAD_PLOTSETTINGS
350
19
  3
ACAD_PLOTSTYLENAME
350
E
  3
ACAD_SCALELIST
350
47
  3
ACAD_SECTIONVIEWSTYLE
350
2F7
  3
ACAD_TABLESTYLE
350
69
  3
ACAD_VISUALSTYLE
350
2A
  3
ACDB_RECOMPOSE_DATA
350
2F3
  3
AcDbVariableDictionary
350
2B3
  0
DICTIONARY
  5
2B1
330
8
100
AcDbDictionary
280
     1
281
     1
  3
ACAD_XREC_ROUNDTRIP
360
2B2
  0
DICTIONARY
  5
2AF
330
2AD
100
AcDbDictionary
280
     1
281
     1
  3
ACAD_XREC_ROUNDTRIP
360
2B0
  0
DICTIONARY
  5
2F6
102
{ACAD_REACTORS
330
C
102
}
330
C
100
AcDbDictionary
281
     1
  0
DICTIONARY
  5
D
102
{ACAD_REACTORS
330
C
102
}
330
C
100
AcDbDictionary
281
     1
  0
DICTIONARY
  5
1A
102
{ACAD_REACTORS
330
C
102
}
330
C
100
AcDbDictionary
281
     1
  3
Layout2
350
26
  3
Model
350
22
  0
DICTIONARY
  5
43
102
{ACAD_REACTORS
330
C
102
}
330
C
100
AcDbDictionary
281
     1
  3
ByBlock
350
45
  3
ByLayer
350
44
  3
Global
350
46
  0
DICTIONARY
  5
6B
102
{ACAD_REACTORS
330
C
102
}
330
C
100
AcDbDictionary
281
     1
  3
Standard
350
6C
  0
DICTIONARY
  5
17
102
{ACAD_REACTORS
330
C
102
}
330
C
100
AcDbDictionary
281
     1
  3
Standard
350
18
  0
DICTIONARY
  5
19
102
{ACAD_REACTORS
330
C
102
}
330
C
100
AcDbDictionary
281
     1
  0
ACDBDICTIONARYWDFLT
  5
E
102
{ACAD_REACTORS
330
C
102
}
330
C
100
AcDbDictionary
281
     1
  3
Normal
350
F
100
AcDbDictionaryWithDefault
340
F
  0
DICTIONARY
  5
47
102
{ACAD_REACTORS
330
C
102
}
330
C
100
AcDbDictionary
281
     1
  3
A0
350
48
  3
A1
350
49
  3
A2
350
4A
  3
A3
350
4B
  3
A4
350
4C
  3
A5
350
4D
  3
A6
350
4E
  3
A7
350
4F
  3
A8
350
50
  3
A9
350
51
  3
B0
350
52
  3
B1
350
53
  3
B2
350
54
  3
B3
350
55
  3
B4
350
56
  3
B5
350
57
  3
B6
350
58
  3
B7
350
59
  3
B8
350
5A
  3
B9
350
5B
  3
C0
350
5C
  3
C1
350
5D
  3
C2
350
5E
  3
C3
350
5F
  3
C4
350
60
  3
C5
350
61
  3
C6
350
62
  3
C7
350
63
  3
C8
350
64
  3
C9
350
65
  3
D0
350
66
  3
D1
350
67
  3
D2
350
68
  0
DICTIONARY
  5
2F7
102
{ACAD_REACTORS
330
C
102
}
330
C
100
AcDbDictionary
281
     1
  0
DICTIONARY
  5
69
102
{ACAD_REACTORS
330
C
102
}
330
C
100
AcDbDictionary
281
     1
  3
Standard
350
6A
  0
DICTIONARY
  5
2A
102
{ACAD_REACTORS
330
C
102
}
330
C
100
AcDbDictionary
281
     1
  3
2dWireframe
350
2F
  3
Basic
350
32
  3
Brighten
350
36
  3
ColorChange
350
3A
  3
Conceptual
350
34
  3
Dim
350
35
  3
EdgeColorOff
350
3D
  3
Facepattern
350
39
  3
Flat
350
2B
  3
FlatWithEdges
350
2C
  3
Gouraud
350
2D
  3
GouraudWithEdges
350
2E
  3
Hidden
350
31
  3
JitterOff
350
3B
  3
Linepattern
350
38
  3
OverhangOff
350
3C
  3
Realistic
350
33
  3
Shaded
350
42
  3
Shaded with edges
350
41
  3
Shades of Gray
350
3E
  3
Sketchy
350
3F
  3
Thicken
350
37
  3
Wireframe
350
30
  3
X-Ray
350
40
  0
XRECORD
  5
2F3
102
{ACAD_REACTORS
330
C
102
}
330
C
100
AcDbXrecord
280
     1
 90
        1
330
6A
  0
DICTIONARY
  5
2B3
102
{ACAD_REACTORS
330
C
102
}
330
C
100
AcDbDictionary
281
     1
  3
CANNOSCALE
350
2B4
  3
CMLEADERSTYLE
350
2F5
  3
CTABLESTYLE
350
2F4
  3
MSLTSCALE
350
2B5
  3
XCLIPFRAME
350
2B6
  0
XRECORD
  5
2B2
102
{ACAD_REACTORS
330
2B1
102
}
330
2B1
100
AcDbXrecord
280
     1
102
VTR_0.000_0.000_1.000_1.000_VISUALSTYLE
340
2F
102
VTR_0.000_0.000_1.000_1.000_GRIDDISPLAY
 70
     3
102
VTR_0.000_0.000_1.000_1.000_GRIDMAJOR
 70
     5
102
VTR_0.000_0.000_1.000_1.000_DEFAULTLIGHTING
280
     1
102
VTR_0.000_0.000_1.000_1.000_DEFAULTLIGHTINGTYPE
 70
     1
102
VTR_0.000_0.000_1.000_1.000_BRIGHTNESS
141
0.0
102
VTR_0.000_0.000_1.000_1.000_CONTRAST
142
0.0
  0
XRECORD
  5
2B0
102
{ACAD_REACTORS
330
2AF
102
}
330
2AF
100
AcDbXrecord
280
     1
102
VISUALSTYLE
340
2F
102
GRIDDISPLAY
 70
     2
102
GRIDMAJOR
 70
     5
102
DEFAULTLIGHTING
280
     1
102
DEFAULTLIGHTINGTYPE
 70
     1
102
BRIGHTNESS
141
0.0
102
CONTRAST
142
0.0
102
SUNID
360
0
  0
LAYOUT
  5
26
102
{ACAD_REACTORS
330
1A
102
}
330
1A
100
AcDbPlotSettings
  1

  2
none_device
  4
Letter_(8.50_x_11.00_Inches)
  6

 40
6.35
 41
6.35
 42
6.35001
 43
6.35001
 44
215.9
 45
279.4
 46
0.0
 47
0.0
 48
0.0
 49
0.0
140
0.0
141
0.0
142
1.0
143
1.0
 70
   688
 72
     0
 73
     1
 74
     5
  7

 75
    16
 76
     0
 77
     2
 78
   300
147
1.0
148
0.0
149
0.0
100
AcDbLayout
  1
Layout2
 70
     1
 71
     1
 10
-0.25
 20
-0.25
 11
10.75
 21
8.25
 12
0.0
 22
0.0
 32
0.0
 14
0.0
 24
0.0
 34
0.0
 15
0.0
 25
0.0
 35
0.0
146
0.0
 13
0.0
 23
0.0
 33
0.0
 16
1.0
 26
0.0
 36
0.0
 17
0.0
 27
1.0
 37
0.0
 76
     0
330
23
331
2AD
  0
LAYOUT
  5
22
102
{ACAD_REACTORS
330
1A
102
}
330
1A
100
AcDbPlotSettings
  1

  2
none_device
  4
Letter_(8.50_x_11.00_Inches)
  6

 40
6.35
 41
6.35
 42
6.35000508
 43
6.35000508
 44
215.9
 45
279.4
 46
0.0
 47
0.0
 48
0.0
 49
0.0
140
0.0
141
0.0
142
1.0
143
1.0
 70
  1712
 72
     0
 73
     0
 74
     0
  7

 75
     0
 76
     0
 77
     2
 78
   300
147
1.0
148
0.0
149
0.0
100
AcDbLayout
  1
Model
 70
     1
 71
     0
 10
0.0
 20
0.0
 11
12.0
 21
9.0
 12
0.0
 22
0.0
 32
0.0
 14
-1909.605712323841
 24
-115.1582249225999
 34
0.0
 15
1209.791069844892
 25
347.8120960199772
 35
0.0
146
0.0
 13
0.0
 23
0.0
 33
0.0
 16
1.0
 26
0.0
 36
0.0
 17
0.0
 27
1.0
 37
0.0
 76
     0
330
1F
331
29
  0
MATERIAL
  5
45
102
{ACAD_REACTORS
330
43
102
}
102
{ACAD_XDICTIONARY
360
2E9
102
}
330
43
100
AcDbMaterial
  1
ByBlock
  0
MATERIAL
  5
44
102
{ACAD_REACTORS
330
43
102
}
102
{ACAD_XDICTIONARY
360
2E7
102
}
330
43
100
AcDbMaterial
  1
ByLayer
  0
MATERIAL
  5
46
102
{ACAD_REACTORS
330
43
102
}
102
{ACAD_XDICTIONARY
360
2EB
102
}
330
43
100
AcDbMaterial
  1
Global
  0
MLEADERSTYLE
  5
6C
102
{ACAD_REACTORS
330
6B
102
}
102
{ACAD_XDICTIONARY
360
2F1
102
}
330
6B
100
AcDbMLeaderStyle
170
     2
171
     1
172
     0
 90
        2
 40
0.0
 41
0.0
173
     1
 91
-1056964608
340
14
 92
       -2
290
     1
 42
0.09
291
     1
 43
0.36
  3
Standard
341
0
 44
0.18
300

342
11
174
     1
178
     6
175
     1
176
     0
 93
-1056964608
 45
0.18
292
     0
297
     0
 46
0.18
343
0
 94
-1056964608
 47
1.0
 49
1.0
140
1.0
293
     1
141
0.0
294
     1
177
     0
142
1.0
295
     0
296
     0
143
0.125
1001
ACAD_MLEADERVER
1070
     2
  0
MLINESTYLE
  5
18
102
{ACAD_REACTORS
330
17
102
}
330
17
100
AcDbMlineStyle
  2
Standard
 70
     0
  3

 62
   256
 51
90.0
 52
90.0
 71
     2
 49
0.5
 62
   256
  6
BYLAYER
 49
-0.5
 62
   256
  6
BYLAYER
  0
ACDBPLACEHOLDER
  5
F
102
{ACAD_REACTORS
330
E
102
}
330
E
  0
SCALE
  5
48
102
{ACAD_REACTORS
330
47
102
}
330
47
100
AcDbScale
 70
     0
300
1:1
140
1.0
141
1.0
290
     1
  0
SCALE
  5
49
102
{ACAD_REACTORS
330
47
102
}
330
47
100
AcDbScale
 70
     0
300
1:2
140
1.0
141
2.0
290
     0
  0
SCALE
  5
4A
102
{ACAD_REACTORS
330
47
102
}
330
47
100
AcDbScale
 70
     0
300
1:4
140
1.0
141
4.0
290
     0
  0
SCALE
  5
4B
102
{ACAD_REACTORS
330
47
102
}
330
47
100
AcDbScale
 70
     0
300
1:5
140
1.0
141
5.0
290
     0
  0
SCALE
  5
4C
102
{ACAD_REACTORS
330
47
102
}
330
47
100
AcDbScale
 70
     0
300
1:8
140
1.0
141
8.0
290
     0
  0
SCALE
  5
4D
102
{ACAD_REACTORS
330
47
102
}
330
47
100
AcDbScale
 70
     0
300
1:10
140
1.0
141
10.0
290
     0
  0
SCALE
  5
4E
102
{ACAD_REACTORS
330
47
102
}
330
47
100
AcDbScale
 70
     0
300
1:16
140
1.0
141
16.0
290
     0
  0
SCALE
  5
4F
102
{ACAD_REACTORS
330
47
102
}
330
47
100
AcDbScale
 70
     0
300
1:20
140
1.0
141
20.0
290
     0
  0
SCALE
  5
50
102
{ACAD_REACTORS
330
47
102
}
330
47
100
AcDbScale
 70
     0
300
1:30
140
1.0
141
30.0
290
     0
  0
SCALE
  5
51
102
{ACAD_REACTORS
330
47
102
}
330
47
100
AcDbScale
 70
     0
300
1:40
140
1.0
141
40.0
290
     0
  0
SCALE
  5
52
102
{ACAD_REACTORS
330
47
102
}
330
47
100
AcDbScale
 70
     0
300
1:50
140
1.0
141
50.0
290
     0
  0
SCALE
  5
53
102
{ACAD_REACTORS
330
47
102
}
330
47
100
AcDbScale
 70
     0
300
1:100
140
1.0
141
100.0
290
     0
  0
SCALE
  5
54
102
{ACAD_REACTORS
330
47
102
}
330
47
100
AcDbScale
 70
     0
300
2:1
140
2.0
141
1.0
290
     0
  0
SCALE
  5
55
102
{ACAD_REACTORS
330
47
102
}
330
47
100
AcDbScale
 70
     0
300
4:1
140
4.0
141
1.0
290
     0
  0
SCALE
  5
56
102
{ACAD_REACTORS
330
47
102
}
330
47
100
AcDbScale
 70
     0
300
8:1
140
8.0
141
1.0
290
     0
  0
SCALE
  5
57
102
{ACAD_REACTORS
330
47
102
}
330
47
100
AcDbScale
 70
     0
300
10:1
140
10.0
141
1.0
290
     0
  0
SCALE
  5
58
102
{ACAD_REACTORS
330
47
102
}
330
47
100
AcDbScale
 70
     0
300
100:1
140
100.0
141
1.0
290
     0
  0
SCALE
  5
59
102
{ACAD_REACTORS
330
47
102
}
330
47
100
AcDbScale
 70
     0
300
1/128" = 1'-0"
140
0.0078125
141
12.0
290
     0
  0
SCALE
  5
5A
102
{ACAD_REACTORS
330
47
102
}
330
47
100
AcDbScale
 70
     0
300
1/64" = 1'-0"
140
0.015625
141
12.0
290
     0
  0
SCALE
  5
5B
102
{ACAD_REACTORS
330
47
102
}
330
47
100
AcDbScale
 70
     0
300
1/32" = 1'-0"
140
0.03125
141
12.0
290
     0
  0
SCALE
  5
5C
102
{ACAD_REACTORS
330
47
102
}
330
47
100
AcDbScale
 70
     0
300
1/16" = 1'-0"
140
0.0625
141
12.0
290
     0
  0
SCALE
  5
5D
102
{ACAD_REACTORS
330
47
102
}
330
47
100
AcDbScale
 70
     0
300
3/32" = 1'-0"
140
0.09375
141
12.0
290
     0
  0
SCALE
  5
5E
102
{ACAD_REACTORS
330
47
102
}
330
47
100
AcDbScale
 70
     0
300
1/8" = 1'-0"
140
0.125
141
12.0
290
     0
  0
SCALE
  5
5F
102
{ACAD_REACTORS
330
47
102
}
330
47
100
AcDbScale
 70
     0
300
3/16" = 1'-0"
140
0.1875
141
12.0
290
     0
  0
SCALE
  5
60
102
{ACAD_REACTORS
330
47
102
}
330
47
100
AcDbScale
 70
     0
300
1/4" = 1'-0"
140
0.25
141
12.0
290
     0
  0
SCALE
  5
61
102
{ACAD_REACTORS
330
47
102
}
330
47
100
AcDbScale
 70
     0
300
3/8" = 1'-0"
140
0.375
141
12.0
290
     0
  0
SCALE
  5
62
102
{ACAD_REACTORS
330
47
102
}
330
47
100
AcDbScale
 70
     0
300
1/2" = 1'-0"
140
0.5
141
12.0
290
     0
  0
SCALE
  5
63
102
{ACAD_REACTORS
330
47
102
}
330
47
100
AcDbScale
 70
     0
300
3/4" = 1'-0"
140
0.75
141
12.0
290
     0
  0
SCALE
  5
64
102
{ACAD_REACTORS
330
47
102
}
330
47
100
AcDbScale
 70
     0
300
1" = 1'-0"
140
1.0
141
12.0
290
     0
  0
SCALE
  5
65
102
{ACAD_REACTORS
330
47
102
}
330
47
100
AcDbScale
 70
     0
300
1-1/2" = 1'-0"
140
1.5
141
12.0
290
     0
  0
SCALE
  5
66
102
{ACAD_REACTORS
330
47
102
}
330
47
100
AcDbScale
 70
     0
300
3" = 1'-0"
140
3.0
141
12.0
290
     0
  0
SCALE
  5
67
102
{ACAD_REACTORS
330
47
102
}
330
47
100
AcDbScale
 70
     0
300
6" = 1'-0"
140
6.0
141
12.0
290
     0
  0
SCALE
  5
68
102
{ACAD_REACTORS
330
47
102
}
330
47
100
AcDbScale
 70
     0
300
1'-0" = 1'-0"
140
12.0
141
12.0
290
     0
  0
TABLESTYLE
  5
6A
102
{ACAD_REACTORS
330
69
102
}
102
{ACAD_XDICTIONARY
360
2ED
102
}
330
69
100
AcDbTableStyle
  3
Standard
 70
     0
 71
     0
 40
0.06
 41
0.06
280
     0
281
     0
  7
Standard
140
0.18
170
     2
 62
     0
 63
   257
283
     0
274
    -2
284
     1
 64
     0
275
    -2
285
     1
 65
     0
276
    -2
286
     1
 66
     0
277
    -2
287
     1
 67
     0
278
    -2
288
     1
 68
     0
279
    -2
289
     1
 69
     0
  7
Standard
140
0.25
170
     5
 62
     0
 63
   257
283
     0
274
    -2
284
     1
 64
     0
275
    -2
285
     1
 65
     0
276
    -2
286
     1
 66
     0
277
    -2
287
     1
 67
     0
278
    -2
288
     1
 68
     0
279
    -2
289
     1
 69
     0
  7
Standard
140
0.18
170
     5
 62
     0
 63
   257
283
     0
274
    -2
284
     1
 64
     0
275
    -2
285
     1
 65
     0
276
    -2
286
     1
 66
     0
277
    -2
287
     1
 67
     0
278
    -2
288
     1
 68
     0
279
    -2
289
     1
 69
     0
  0
VISUALSTYLE
  5
2F
102
{ACAD_REACTORS
330
2A
102
}
102
{ACAD_XDICTIONARY
360
2BF
102
}
330
2A
100
AcDbVisualStyle
  2
2dWireframe
 70
     4
 71
     0
 72
     2
 73
     0
 90
        0
 40
0.6
 41
30.0
 62
     5
 63
     7
421
 16777215
 74
     1
 91
        4
 64
     7
 65
   257
 75
     1
175
     1
 42
1.0
 92
        0
 66
   257
 43
1.0
 76
     1
 77
     6
 78
     2
 67
     7
 79
     5
170
     0
171
     0
290
     0
174
     0
 93
        1
 44
0.0
173
     0
291
     0
 45
0.0
1001
ACAD
1000
AcDbSavedByObjectVersion
1070
     0
  0
VISUALSTYLE
  5
32
102
{ACAD_REACTORS
330
2A
102
}
102
{ACAD_XDICTIONARY
360
2C5
102
}
330
2A
100
AcDbVisualStyle
  2
Basic
 70
     7
 71
     1
 72
     0
 73
     1
 90
        0
 40
0.6
 41
30.0
 62
     5
 63
     7
421
 16777215
 74
     0
 91
        4
 64
     7
 65
   257
 75
     1
175
     1
 42
1.0
 92
        8
 66
     7
 43
1.0
 76
     1
 77
     6
 78
     2
 67
     7
 79
     5
170
     0
171
     0
290
     0
174
     0
 93
        1
 44
0.0
173
     0
291
     1
 45
0.0
1001
ACAD
1000
AcDbSavedByObjectVersion
1070
     0
  0
VISUALSTYLE
  5
36
102
{ACAD_REACTORS
330
2A
102
}
102
{ACAD_XDICTIONARY
360
2CD
102
}
330
2A
100
AcDbVisualStyle
  2
Brighten
 70
    12
 71
     2
 72
     2
 73
     0
 90
        0
 40
0.6
 41
30.0
 62
     5
 63
     7
421
 16777215
 74
     1
 91
        4
 64
     7
 65
   257
 75
     1
175
     1
 42
1.0
 92
        8
 66
     7
 43
1.0
 76
     1
 77
     6
 78
     2
 67
     7
 79
     5
170
     0
171
     0
290
     0
174
     0
 93
        1
 44
50.0
173
     0
291
     1
 45
0.0
1001
ACAD
1000
AcDbSavedByObjectVersion
1070
     0
  0
VISUALSTYLE
  5
3A
102
{ACAD_REACTORS
330
2A
102
}
102
{ACAD_XDICTIONARY
360
2D5
102
}
330
2A
100
AcDbVisualStyle
  2
ColorChange
 70
    16
 71
     2
 72
     2
 73
     3
 90
        0
 40
0.6
 41
30.0
 62
     5
 63
     8
421
  8421504
 74
     1
 91
        4
 64
     7
 65
   257
 75
     1
175
     1
 42
1.0
 92
        8
 66
     8
424
  8421504
 43
1.0
 76
     1
 77
     6
 78
     2
 67
     7
 79
     5
170
     0
171
     0
290
     0
174
     0
 93
        1
 44
0.0
173
     0
291
     1
 45
0.0
1001
ACAD
1000
AcDbSavedByObjectVersion
1070
     0
  0
VISUALSTYLE
  5
34
102
{ACAD_REACTORS
330
2A
102
}
102
{ACAD_XDICTIONARY
360
2C9
102
}
330
2A
100
AcDbVisualStyle
  2
Conceptual
 70
     9
 71
     3
 72
     2
 73
     0
 90
        0
 40
0.6
 41
30.0
 62
     5
 63
     7
421
 16777215
 74
     2
 91
        2
 64
     7
 65
   257
 75
     1
175
     1
 42
179.0
 92
        8
 66
     7
 43
1.0
 76
     1
 77
     6
 78
     2
 67
     7
 79
     3
170
     0
171
     0
290
     0
174
     0
 93
        1
 44
0.0
173
     0
291
     0
 45
0.0
1001
ACAD
1000
AcDbSavedByObjectVersion
1070
     0
  0
VISUALSTYLE
  5
35
102
{ACAD_REACTORS
330
2A
102
}
102
{ACAD_XDICTIONARY
360
2CB
102
}
330
2A
100
AcDbVisualStyle
  2
Dim
 70
    11
 71
     2
 72
     2
 73
     0
 90
        0
 40
0.6
 41
30.0
 62
     5
 63
     7
421
 16777215
 74
     1
 91
        4
 64
     7
 65
   257
 75
     1
175
     1
 42
1.0
 92
        8
 66
     7
 43
1.0
 76
     1
 77
     6
 78
     2
 67
     7
 79
     5
170
     0
171
     0
290
     0
174
     0
 93
        1
 44
-50.0
173
     0
291
     1
 45
0.0
1001
ACAD
1000
AcDbSavedByObjectVersion
1070
     0
  0
VISUALSTYLE
  5
3D
102
{ACAD_REACTORS
330
2A
102
}
102
{ACAD_XDICTIONARY
360
2DB
102
}
330
2A
100
AcDbVisualStyle
  2
EdgeColorOff
 70
    22
 71
     2
 72
     2
 73
     0
 90
        0
 40
0.6
 41
30.0
 62
     5
 63
     7
421
 16777215
 74
     1
 91
        4
 64
     7
 65
   257
 75
     1
175
     1
 42
1.0
 92
        8
 66
     7
 43
1.0
 76
     1
 77
     6
 78
     2
 67
     7
 79
     5
170
     0
171
     0
290
     0
174
     0
 93
        1
 44
0.0
173
     0
291
     1
 45
0.0
1001
ACAD
1000
AcDbSavedByObjectVersion
1070
     0
  0
VISUALSTYLE
  5
39
102
{ACAD_REACTORS
330
2A
102
}
102
{ACAD_XDICTIONARY
360
2D3
102
}
330
2A
100
AcDbVisualStyle
  2
Facepattern
 70
    15
 71
     2
 72
     2
 73
     0
 90
        0
 40
0.6
 41
30.0
 62
     5
 63
     7
421
 16777215
 74
     1
 91
        4
 64
     7
 65
   257
 75
     1
175
     1
 42
1.0
 92
        8
 66
     7
 43
1.0
 76
     1
 77
     6
 78
     2
 67
     7
 79
     5
170
     0
171
     0
290
     0
174
     0
 93
        1
 44
0.0
173
     0
291
     1
 45
0.0
1001
ACAD
1000
AcDbSavedByObjectVersion
1070
     0
  0
VISUALSTYLE
  5
2B
102
{ACAD_REACTORS
330
2A
102
}
102
{ACAD_XDICTIONARY
360
2B7
102
}
330
2A
100
AcDbVisualStyle
  2
Flat
 70
     0
 71
     2
 72
     1
 73
     1
 90
        2
 40
0.6
 41
30.0
 62
     5
 63
     7
421
 16777215
 74
     0
 91
        0
 64
     7
 65
   257
 75
     1
175
     1
 42
1.0
 92
        8
 66
     7
 43
1.0
 76
     1
 77
     6
 78
     2
 67
     7
 79
     5
170
     0
171
     0
290
     0
174
     0
 93
       13
 44
0.0
173
     0
291
     1
 45
0.0
1001
ACAD
1000
AcDbSavedByObjectVersion
1070
     0
  0
VISUALSTYLE
  5
2C
102
{ACAD_REACTORS
330
2A
102
}
102
{ACAD_XDICTIONARY
360
2B9
102
}
330
2A
100
AcDbVisualStyle
  2
FlatWithEdges
 70
     1
 71
     2
 72
     1
 73
     1
 90
        2
 40
0.6
 41
30.0
 62
     5
 63
     7
421
 16777215
 74
     1
 91
        0
 64
     7
 65
   257
 75
     1
175
     1
 42
1.0
 92
        0
 66
   257
 43
1.0
 76
     1
 77
     6
 78
     2
 67
     7
 79
     5
170
     0
171
     0
290
     0
174
     0
 93
       13
 44
0.0
173
     0
291
     1
 45
0.0
1001
ACAD
1000
AcDbSavedByObjectVersion
1070
     0
  0
VISUALSTYLE
  5
2D
102
{ACAD_REACTORS
330
2A
102
}
102
{ACAD_XDICTIONARY
360
2BB
102
}
330
2A
100
AcDbVisualStyle
  2
Gouraud
 70
     2
 71
     2
 72
     2
 73
     1
 90
        2
 40
0.6
 41
30.0
 62
     5
 63
     7
421
 16777215
 74
     0
 91
        0
 64
     7
 65
   257
 75
     1
175
     1
 42
1.0
 92
        0
 66
     7
 43
1.0
 76
     1
 77
     6
 78
     2
 67
     7
 79
     5
170
     0
171
     0
290
     0
174
     0
 93
       13
 44
0.0
173
     0
291
     1
 45
0.0
1001
ACAD
1000
AcDbSavedByObjectVersion
1070
     0
  0
VISUALSTYLE
  5
2E
102
{ACAD_REACTORS
330
2A
102
}
102
{ACAD_XDICTIONARY
360
2BD
102
}
330
2A
100
AcDbVisualStyle
  2
GouraudWithEdges
 70
     3
 71
     2
 72
     2
 73
     1
 90
        2
 40
0.6
 41
30.0
 62
     5
 63
     7
421
 16777215
 74
     1
 91
        0
 64
     7
 65
   257
 75
     1
175
     1
 42
1.0
 92
        0
 66
   257
 43
1.0
 76
     1
 77
     6
 78
     2
 67
     7
 79
     5
170
     0
171
     0
290
     0
174
     0
 93
       13
 44
0.0
173
     0
291
     1
 45
0.0
1001
ACAD
1000
AcDbSavedByObjectVersion
1070
     0
  0
VISUALSTYLE
  5
31
102
{ACAD_REACTORS
330
2A
102
}
102
{ACAD_XDICTIONARY
360
2C3
102
}
330
2A
100
AcDbVisualStyle
  2
Hidden
 70
     6
 71
     1
 72
     2
 73
     2
 90
        0
 40
0.6
 41
30.0
 62
     5
 63
     7
421
 16777215
 74
     2
 91
        2
 64
     7
 65
   257
 75
     2
175
     1
 42
40.0
 92
        0
 66
   257
 43
1.0
 76
     1
 77
     6
 78
     2
 67
     7
 79
     3
170
     0
171
     0
290
     0
174
     0
 93
        1
 44
0.0
173
     0
291
     0
 45
0.0
1001
ACAD
1000
AcDbSavedByObjectVersion
1070
     0
  0
VISUALSTYLE
  5
3B
102
{ACAD_REACTORS
330
2A
102
}
102
{ACAD_XDICTIONARY
360
2D7
102
}
330
2A
100
AcDbVisualStyle
  2
JitterOff
 70
    20
 71
     2
 72
     2
 73
     0
 90
        0
 40
0.6
 41
30.0
 62
     5
 63
     7
421
 16777215
 74
     1
 91
        4
 64
     7
 65
   257
 75
     1
175
     1
 42
1.0
 92
       10
 66
     7
 43
1.0
 76
     1
 77
     6
 78
     2
 67
     7
 79
     5
170
     0
171
     0
290
     0
174
     0
 93
        1
 44
0.0
173
     0
291
     1
 45
0.0
1001
ACAD
1000
AcDbSavedByObjectVersion
1070
     0
  0
VISUALSTYLE
  5
38
102
{ACAD_REACTORS
330
2A
102
}
102
{ACAD_XDICTIONARY
360
2D1
102
}
330
2A
100
AcDbVisualStyle
  2
Linepattern
 70
    14
 71
     2
 72
     2
 73
     0
 90
        0
 40
0.6
 41
30.0
 62
     5
 63
     7
421
 16777215
 74
     1
 91
        4
 64
     7
 65
   257
 75
     7
175
     7
 42
1.0
 92
        8
 66
     7
 43
1.0
 76
     1
 77
     6
 78
     2
 67
     7
 79
     5
170
     0
171
     0
290
     0
174
     0
 93
        1
 44
0.0
173
     0
291
     1
 45
0.0
1001
ACAD
1000
AcDbSavedByObjectVersion
1070
     0
  0
VISUALSTYLE
  5
3C
102
{ACAD_REACTORS
330
2A
102
}
102
{ACAD_XDICTIONARY
360
2D9
102
}
330
2A
100
AcDbVisualStyle
  2
OverhangOff
 70
    21
 71
     2
 72
     2
 73
     0
 90
        0
 40
0.6
 41
30.0
 62
     5
 63
     7
421
 16777215
 74
     1
 91
        4
 64
     7
 65
   257
 75
     1
175
     1
 42
1.0
 92
        9
 66
     7
 43
1.0
 76
     1
 77
     6
 78
     2
 67
     7
 79
     5
170
     0
171
     0
290
     0
174
     0
 93
        1
 44
0.0
173
     0
291
     1
 45
0.0
1001
ACAD
1000
AcDbSavedByObjectVersion
1070
     0
  0
VISUALSTYLE
  5
33
102
{ACAD_REACTORS
330
2A
102
}
102
{ACAD_XDICTIONARY
360
2C7
102
}
330
2A
100
AcDbVisualStyle
  2
Realistic
 70
     8
 71
     2
 72
     3
 73
     0
 90
        2
 40
0.6
 41
30.0
 62
     5
 63
     7
421
 16777215
 74
     0
 91
        0
 64
     7
 65
   257
 75
     1
175
     1
 42
1.0
 92
        8
 66
   257
 43
1.0
 76
     1
 77
     6
 78
     2
 67
     7
 79
     3
170
     0
171
     0
290
     0
174
     0
 93
       13
 44
0.0
173
     0
291
     0
 45
0.0
1001
ACAD
1000
AcDbSavedByObjectVersion
1070
     0
  0
VISUALSTYLE
  5
42
102
{ACAD_REACTORS
330
2A
102
}
102
{ACAD_XDICTIONARY
360
2E5
102
}
330
2A
100
AcDbVisualStyle
  2
Shaded
 70
    27
 71
     2
 72
     2
 73
     1
 90
        2
 40
0.6
 41
30.0
 62
     5
 63
     7
421
 16777215
 74
     0
 91
        4
 64
     7
 65
   257
 75
     1
175
     1
 42
1.0
 92
        8
 66
   257
 43
1.0
 76
     1
 77
     6
 78
     2
 67
     8
425
  7895160
 79
     3
170
     0
171
     0
290
     0
174
     0
 93
        5
 44
0.0
173
     0
291
     0
 45
0.0
1001
ACAD
1000
AcDbSavedByObjectVersion
1070
     0
  0
VISUALSTYLE
  5
41
102
{ACAD_REACTORS
330
2A
102
}
102
{ACAD_XDICTIONARY
360
2E3
102
}
330
2A
100
AcDbVisualStyle
  2
Shaded with edges
 70
    26
 71
     2
 72
     2
 73
     1
 90
        2
 40
0.6
 41
30.0
 62
     5
 63
     7
421
 16777215
 74
     1
 91
       10
 64
     7
 65
   257
 75
     2
175
     1
 42
1.0
 92
        8
 66
   257
 43
1.0
 76
     1
 77
     6
 78
     2
 67
     7
 79
     3
170
     0
171
     0
290
     0
174
     0
 93
        5
 44
0.0
173
     0
291
     0
 45
0.0
1001
ACAD
1000
AcDbSavedByObjectVersion
1070
     0
  0
VISUALSTYLE
  5
3E
102
{ACAD_REACTORS
330
2A
102
}
102
{ACAD_XDICTIONARY
360
2DD
102
}
330
2A
100
AcDbVisualStyle
  2
Shades of Gray
 70
    23
 71
     2
 72
     2
 73
     3
 90
        0
 40
0.6
 41
30.0
 62
     5
 63
     7
421
 16777215
 74
     2
 91
        2
 64
     7
 65
     7
 75
     1
175
     1
 42
40.0
 92
        8
 66
     7
 43
1.0
 76
     1
 77
     6
 78
     2
 67
     7
 79
     3
170
     0
171
     0
290
     0
174
     0
 93
        1
 44
0.0
173
     0
291
     0
 45
0.0
1001
ACAD
1000
AcDbSavedByObjectVersion
1070
     0
  0
VISUALSTYLE
  5
3F
102
{ACAD_REACTORS
330
2A
102
}
102
{ACAD_XDICTIONARY
360
2DF
102
}
330
2A
100
AcDbVisualStyle
  2
Sketchy
 70
    24
 71
     1
 72
     2
 73
     2
 90
        0
 40
0.6
 41
30.0
 62
     5
 63
     7
421
 16777215
 74
     2
 91
        2
 64
     7
 65
     7
 75
     1
175
     1
 42
40.0
 92
       11
 66
     7
 43
1.0
 76
     1
 77
     6
 78
     2
 67
     7
 79
     6
170
     0
171
     0
290
     0
174
     0
 93
        1
 44
0.0
173
     0
291
     0
 45
0.0
1001
ACAD
1000
AcDbSavedByObjectVersion
1070
     0
  0
VISUALSTYLE
  5
37
102
{ACAD_REACTORS
330
2A
102
}
102
{ACAD_XDICTIONARY
360
2CF
102
}
330
2A
100
AcDbVisualStyle
  2
Thicken
 70
    13
 71
     2
 72
     2
 73
     0
 90
        0
 40
0.6
 41
30.0
 62
     5
 63
     7
421
 16777215
 74
     1
 91
        4
 64
     7
 65
   257
 75
     1
175
     1
 42
1.0
 92
       12
 66
     7
 43
1.0
 76
     1
 77
     6
 78
     2
 67
     7
 79
     5
170
     0
171
     0
290
     0
174
     0
 93
        1
 44
0.0
173
     0
291
     1
 45
0.0
1001
ACAD
1000
AcDbSavedByObjectVersion
1070
     0
  0
VISUALSTYLE
  5
30
102
{ACAD_REACTORS
330
2A
102
}
102
{ACAD_XDICTIONARY
360
2C1
102
}
330
2A
100
AcDbVisualStyle
  2
Wireframe
 70
     5
 71
     0
 72
     2
 73
     0
 90
        0
 40
0.6
 41
30.0
 62
     5
 63
     7
421
 16777215
 74
     1
 91
        4
 64
     7
 65
   257
 75
     1
175
     1
 42
1.0
 92
        0
 66
   257
 43
1.0
 76
     1
 77
     6
 78
     2
 67
     7
 79
     3
170
     0
171
     0
290
     0
174
     0
 93
        1
 44
0.0
173
     0
291
     0
 45
0.0
1001
ACAD
1000
AcDbSavedByObjectVersion
1070
     0
  0
VISUALSTYLE
  5
40
102
{ACAD_REACTORS
330
2A
102
}
102
{ACAD_XDICTIONARY
360
2E1
102
}
330
2A
100
AcDbVisualStyle
  2
X-Ray
 70
    25
 71
     2
 72
     2
 73
     1
 90
        1
 40
0.5
 41
30.0
 62
     5
 63
     7
421
 16777215
 74
     1
 91
        0
 64
     7
 65
   257
 75
     1
175
     1
 42
1.0
 92
        8
 66
     7
 43
1.0
 76
     1
 77
     6
 78
     2
 67
     7
 79
     3
170
     0
171
     0
290
     0
174
     0
 93
       13
 44
0.0
173
     0
291
     0
 45
0.0
1001
ACAD
1000
AcDbSavedByObjectVersion
1070
     0
  0
DICTIONARYVAR
  5
2B4
102
{ACAD_REACTORS
330
2B3
102
}
330
2B3
100
DictionaryVariables
280
     0
  1
1:1
  0
DICTIONARYVAR
  5
2F5
102
{ACAD_REACTORS
330
2B3
102
}
330
2B3
100
DictionaryVariables
280
     0
  1
Standard
  0
DICTIONARYVAR
  5
2F4
102
{ACAD_REACTORS
330
2B3
102
}
330
2B3
100
DictionaryVariables
280
     0
  1
Standard
  0
DICTIONARYVAR
  5
2B5
102
{ACAD_REACTORS
330
2B3
102
}
330
2B3
100
DictionaryVariables
280
     0
  1
1
  0
DICTIONARYVAR
  5
2B6
102
{ACAD_REACTORS
330
2B3
102
}
330
2B3
100
DictionaryVariables
280
     0
  1
2
  0
DICTIONARY
  5
2E9
330
45
100
AcDbDictionary
280
     1
281
     1
  3
ACAD_XREC_ROUNDTRIP
360
2EA
  0
DICTIONARY
  5
2E7
330
44
100
AcDbDictionary
280
     1
281
     1
  3
ACAD_XREC_ROUNDTRIP
360
2E8
  0
DICTIONARY
  5
2EB
330
46
100
AcDbDictionary
280
     1
281
     1
  3
ACAD_XREC_ROUNDTRIP
360
2EC
  0
DICTIONARY
  5
2F1
330
6C
100
AcDbDictionary
280
     1
281
     1
  3
ACAD_XREC_ROUNDTRIP
360
2F2
  0
DICTIONARY
  5
2ED
330
6A
100
AcDbDictionary
280
     1
281
     1
  3
ACAD_ROUNDTRIP_2008_TABLESTYLE_CELLSTYLEMAP
360
2EF
  3
ACAD_XREC_ROUNDTRIP
360
2EE
  0
DICTIONARY
  5
2BF
330
2F
100
AcDbDictionary
280
     1
281
     1
  3
ACAD_XREC_ROUNDTRIP
360
2C0
  0
DICTIONARY
  5
2C5
330
32
100
AcDbDictionary
280
     1
281
     1
  3
ACAD_XREC_ROUNDTRIP
360
2C6
  0
DICTIONARY
  5
2CD
330
36
100
AcDbDictionary
280
     1
281
     1
  3
ACAD_XREC_ROUNDTRIP
360
2CE
  0
DICTIONARY
  5
2D5
330
3A
100
AcDbDictionary
280
     1
281
     1
  3
ACAD_XREC_ROUNDTRIP
360
2D6
  0
DICTIONARY
  5
2C9
330
34
100
AcDbDictionary
280
     1
281
     1
  3
ACAD_XREC_ROUNDTRIP
360
2CA
  0
DICTIONARY
  5
2CB
330
35
100
AcDbDictionary
280
     1
281
     1
  3
ACAD_XREC_ROUNDTRIP
360
2CC
  0
DICTIONARY
  5
2DB
330
3D
100
AcDbDictionary
280
     1
281
     1
  3
ACAD_XREC_ROUNDTRIP
360
2DC
  0
DICTIONARY
  5
2D3
330
39
100
AcDbDictionary
280
     1
281
     1
  3
ACAD_XREC_ROUNDTRIP
360
2D4
  0
DICTIONARY
  5
2B7
330
2B
100
AcDbDictionary
280
     1
281
     1
  3
ACAD_XREC_ROUNDTRIP
360
2B8
  0
DICTIONARY
  5
2B9
330
2C
100
AcDbDictionary
280
     1
281
     1
  3
ACAD_XREC_ROUNDTRIP
360
2BA
  0
DICTIONARY
  5
2BB
330
2D
100
AcDbDictionary
280
     1
281
     1
  3
ACAD_XREC_ROUNDTRIP
360
2BC
  0
DICTIONARY
  5
2BD
330
2E
100
AcDbDictionary
280
     1
281
     1
  3
ACAD_XREC_ROUNDTRIP
360
2BE
  0
DICTIONARY
  5
2C3
330
31
100
AcDbDictionary
280
     1
281
     1
  3
ACAD_XREC_ROUNDTRIP
360
2C4
  0
DICTIONARY
  5
2D7
330
3B
100
AcDbDictionary
280
     1
281
     1
  3
ACAD_XREC_ROUNDTRIP
360
2D8
  0
DICTIONARY
  5
2D1
330
38
100
AcDbDictionary
280
     1
281
     1
  3
ACAD_XREC_ROUNDTRIP
360
2D2
  0
DICTIONARY
  5
2D9
330
3C
100
AcDbDictionary
280
     1
281
     1
  3
ACAD_XREC_ROUNDTRIP
360
2DA
  0
DICTIONARY
  5
2C7
330
33
100
AcDbDictionary
280
     1
281
     1
  3
ACAD_XREC_ROUNDTRIP
360
2C8
  0
DICTIONARY
  5
2E5
330
42
100
AcDbDictionary
280
     1
281
     1
  3
ACAD_XREC_ROUNDTRIP
360
2E6
  0
DICTIONARY
  5
2E3
330
41
100
AcDbDictionary
280
     1
281
     1
  3
ACAD_XREC_ROUNDTRIP
360
2E4
  0
DICTIONARY
  5
2DD
330
3E
100
AcDbDictionary
280
     1
281
     1
  3
ACAD_XREC_ROUNDTRIP
360
2DE
  0
DICTIONARY
  5
2DF
330
3F
100
AcDbDictionary
280
     1
281
     1
  3
ACAD_XREC_ROUNDTRIP
360
2E0
  0
DICTIONARY
  5
2CF
330
37
100
AcDbDictionary
280
     1
281
     1
  3
ACAD_XREC_ROUNDTRIP
360
2D0
  0
DICTIONARY
  5
2C1
330
30
100
AcDbDictionary
280
     1
281
     1
  3
ACAD_XREC_ROUNDTRIP
360
2C2
  0
DICTIONARY
  5
2E1
330
40
100
AcDbDictionary
280
     1
281
     1
  3
ACAD_XREC_ROUNDTRIP
360
2E2
  0
XRECORD
  5
2EA
102
{ACAD_REACTORS
330
2E9
102
}
330
2E9
100
AcDbXrecord
280
     1
102
MATERIAL
148
0.0
149
0.0
149
0.0
 93
        0
 94
      127
282
     0
 72
     1
 77
     1
171
     1
175
     1
179
     1
273
     0
  0
XRECORD
  5
2E8
102
{ACAD_REACTORS
330
2E7
102
}
330
2E7
100
AcDbXrecord
280
     1
102
MATERIAL
148
0.0
149
0.0
149
0.0
 93
        0
 94
      127
282
     0
 72
     1
 77
     1
171
     1
175
     1
179
     1
273
     0
  0
XRECORD
  5
2EC
102
{ACAD_REACTORS
330
2EB
102
}
330
2EB
100
AcDbXrecord
280
     1
102
MATERIAL
148
0.0
149
0.0
149
0.0
 93
        0
 94
      127
282
     0
 72
     1
 77
     1
171
     1
175
     1
179
     1
273
     0
  0
XRECORD
  5
2F2
102
{ACAD_REACTORS
330
2F1
102
}
330
2F1
100
AcDbXrecord
280
     1
102
ACAD_ROUNDTRIP_2010_MLEADER_STYLE
  0
CELLSTYLEMAP
  5
2EF
102
{ACAD_REACTORS
330
2ED
102
}
330
2ED
100
AcDbCellStyleMap
 90
        3
300
CELLSTYLE
  1
TABLEFORMAT_BEGIN
 90
        5
170
     1
 91
        0
 92
    32768
 62
   257
 93
        1
300
CONTENTFORMAT
  1
CONTENTFORMAT_BEGIN
 90
        0
 91
        0
 92
        4
 93
        0
300

 40
0.0
140
1.0
 94
        5
 62
     0
340
11
144
0.25
309
CONTENTFORMAT_END
171
     1
301
MARGIN
  1
CELLMARGIN_BEGIN
 40
0.06
 40
0.06
 40
0.06
 40
0.06
 40
0.06
 40
0.06
309
CELLMARGIN_END
 94
        6
 95
        1
302
GRIDFORMAT
  1
GRIDFORMAT_BEGIN
 90
        0
 91
        1
 62
     0
 92
       -2
340
14
 93
        0
 40
0.045
309
GRIDFORMAT_END
 95
        2
302
GRIDFORMAT
  1
GRIDFORMAT_BEGIN
 90
        0
 91
        1
 62
     0
 92
       -2
340
14
 93
        0
 40
0.045
309
GRIDFORMAT_END
 95
        4
302
GRIDFORMAT
  1
GRIDFORMAT_BEGIN
 90
        0
 91
        1
 62
     0
 92
       -2
340
14
 93
        0
 40
0.045
309
GRIDFORMAT_END
 95
        8
302
GRIDFORMAT
  1
GRIDFORMAT_BEGIN
 90
        0
 91
        1
 62
     0
 92
       -2
340
14
 93
        0
 40
0.045
309
GRIDFORMAT_END
 95
       16
302
GRIDFORMAT
  1
GRIDFORMAT_BEGIN
 90
        0
 91
        1
 62
     0
 92
       -2
340
14
 93
        0
 40
0.045
309
GRIDFORMAT_END
 95
       32
302
GRIDFORMAT
  1
GRIDFORMAT_BEGIN
 90
        0
 91
        1
 62
     0
 92
       -2
340
14
 93
        0
 40
0.045
309
GRIDFORMAT_END
309
TABLEFORMAT_END
  1
CELLSTYLE_BEGIN
 90
        1
 91
        1
300
_TITLE
309
CELLSTYLE_END
300
CELLSTYLE
  1
TABLEFORMAT_BEGIN
 90
        5
170
     1
 91
        0
 92
        0
 62
   257
 93
        1
300
CONTENTFORMAT
  1
CONTENTFORMAT_BEGIN
 90
        0
 91
        0
 92
        4
 93
        0
300

 40
0.0
140
1.0
 94
        5
 62
     0
340
11
144
0.18
309
CONTENTFORMAT_END
171
     1
301
MARGIN
  1
CELLMARGIN_BEGIN
 40
0.06
 40
0.06
 40
0.06
 40
0.06
 40
0.06
 40
0.06
309
CELLMARGIN_END
 94
        6
 95
        1
302
GRIDFORMAT
  1
GRIDFORMAT_BEGIN
 90
        0
 91
        1
 62
     0
 92
       -2
340
14
 93
        0
 40
0.045
309
GRIDFORMAT_END
 95
        2
302
GRIDFORMAT
  1
GRIDFORMAT_BEGIN
 90
        0
 91
        1
 62
     0
 92
       -2
340
14
 93
        0
 40
0.045
309
GRIDFORMAT_END
 95
        4
302
GRIDFORMAT
  1
GRIDFORMAT_BEGIN
 90
        0
 91
        1
 62
     0
 92
       -2
340
14
 93
        0
 40
0.045
309
GRIDFORMAT_END
 95
        8
302
GRIDFORMAT
  1
GRIDFORMAT_BEGIN
 90
        0
 91
        1
 62
     0
 92
       -2
340
14
 93
        0
 40
0.045
309
GRIDFORMAT_END
 95
       16
302
GRIDFORMAT
  1
GRIDFORMAT_BEGIN
 90
        0
 91
        1
 62
     0
 92
       -2
340
14
 93
        0
 40
0.045
309
GRIDFORMAT_END
 95
       32
302
GRIDFORMAT
  1
GRIDFORMAT_BEGIN
 90
        0
 91
        1
 62
     0
 92
       -2
340
14
 93
        0
 40
0.045
309
GRIDFORMAT_END
309
TABLEFORMAT_END
  1
CELLSTYLE_BEGIN
 90
        2
 91
        1
300
_HEADER
309
CELLSTYLE_END
300
CELLSTYLE
  1
TABLEFORMAT_BEGIN
 90
        5
170
     1
 91
        0
 92
        0
 62
   257
 93
        1
300
CONTENTFORMAT
  1
CONTENTFORMAT_BEGIN
 90
        0
 91
        0
 92
        4
 93
        0
300

 40
0.0
140
1.0
 94
        2
 62
     0
340
11
144
0.18
309
CONTENTFORMAT_END
171
     1
301
MARGIN
  1
CELLMARGIN_BEGIN
 40
0.06
 40
0.06
 40
0.06
 40
0.06
 40
0.06
 40
0.06
309
CELLMARGIN_END
 94
        6
 95
        1
302
GRIDFORMAT
  1
GRIDFORMAT_BEGIN
 90
        0
 91
        1
 62
     0
 92
       -2
340
14
 93
        0
 40
0.045
309
GRIDFORMAT_END
 95
        2
302
GRIDFORMAT
  1
GRIDFORMAT_BEGIN
 90
        0
 91
        1
 62
     0
 92
       -2
340
14
 93
        0
 40
0.045
309
GRIDFORMAT_END
 95
        4
302
GRIDFORMAT
  1
GRIDFORMAT_BEGIN
 90
        0
 91
        1
 62
     0
 92
       -2
340
14
 93
        0
 40
0.045
309
GRIDFORMAT_END
 95
        8
302
GRIDFORMAT
  1
GRIDFORMAT_BEGIN
 90
        0
 91
        1
 62
     0
 92
       -2
340
14
 93
        0
 40
0.045
309
GRIDFORMAT_END
 95
       16
302
GRIDFORMAT
  1
GRIDFORMAT_BEGIN
 90
        0
 91
        1
 62
     0
 92
       -2
340
14
 93
        0
 40
0.045
309
GRIDFORMAT_END
 95
       32
302
GRIDFORMAT
  1
GRIDFORMAT_BEGIN
 90
        0
 91
        1
 62
     0
 92
       -2
340
14
 93
        0
 40
0.045
309
GRIDFORMAT_END
309
TABLEFORMAT_END
  1
CELLSTYLE_BEGIN
 90
        3
 91
        2
300
_DATA
309
CELLSTYLE_END
  0
XRECORD
  5
2EE
102
{ACAD_REACTORS
330
2ED
102
}
330
2ED
100
AcDbXrecord
280
     1
102
ACAD_ROUNDTRIP_PRE2007_TABLESTYLE
 90
        4
 91
        0
  1

 92
        4
 93
        0
  2

 94
        4
 95
        0
  3

  0
XRECORD
  5
2C0
102
{ACAD_REACTORS
330
2BF
102
}
330
2BF
100
AcDbXrecord
280
     1
102
RTVSPropertyOp0
 70
     1
102
RTVSPropertyOp1
 70
     1
102
RTVSPropertyOp2
 70
     1
102
RTVSPropertyOp3
 70
     1
102
RTVSPropertyOp4
 70
     1
102
RTVSPropertyOp5
 70
     1
102
RTVSPropertyOp6
 70
     1
102
RTVSPropertyOp7
 70
     1
102
RTVSPropertyOp8
 70
     1
102
RTVSPropertyOp9
 70
     1
102
RTVSPropertyOp10
 70
     1
102
RTVSPropertyOp11
 70
     1
102
RTVSPropertyOp12
 70
     1
102
RTVSPropertyOp13
 70
     1
102
RTVSPropertyOp14
 70
     1
102
RTVSPropertyOp15
 70
     1
102
RTVSPropertyOp16
 70
     1
102
RTVSPropertyOp17
 70
     1
102
RTVSPropertyOp18
 70
     1
102
RTVSPropertyOp19
 70
     1
102
RTVSPropertyOp20
 70
     1
102
RTVSPropertyOp21
 70
     1
102
RTVSPropertyOp22
 70
     1
102
RTVSPropertyOp23
 70
     1
102
RTVSPropertyOp24
 70
     1
102
RTVSPropertyOp25
 70
     1
102
RTVSPropertyOp26
 70
     1
102
RTVSPropertyOp27
 70
     1
102
RTVSPropertyOp28
 70
     1
102
RTVSPropertyOp29
 70
     1
102
RTVSPropertyOp30
 70
     1
102
RTVSPropertyOp31
 70
     1
102
RTVSPropertyOp32
 70
     1
102
RTVSPropertyOp33
 70
     1
102
RTVSPropertyOp34
 70
     1
102
RTVSPropertyOp35
 70
     1
102
RTVSPropertyOp36
 70
     1
102
RTVSPropertyOp37
 70
     1
102
RTVSPropertyOp38
 70
     1
102
RTVSPropertyOp39
 70
     1
102
RTVSPropertyOp40
 70
     1
102
RTVSPropertyOp41
 70
     1
102
RTVSPropertyOp42
 70
     1
102
RTVSPropertyOp43
 70
     1
102
RTVSPropertyOp44
 70
     1
102
RTVSPropertyOp45
 70
     1
102
RTVSPropertyOp46
 70
     1
102
RTVSPropertyOp47
 70
     1
102
RTVSPropertyOp48
 70
     1
102
RTVSPropertyOp49
 70
     1
102
RTVSPropertyOp50
 70
     1
102
RTVSPropertyOp51
 70
     0
102
RTVSPropertyOp52
 70
     0
102
RTVSPropertyOp53
 70
     1
102
RTVSPropertyOp54
 70
     1
102
RTVSPropertyOp55
 70
     1
102
RTVSPropertyOp56
 70
     1
102
RTVSPropertyOp57
 70
     1
102
RTVSPost2010Prop28
280
     1
102
RTVSPost2010PropOp28
 70
     1
102
RTVSPost2010Prop29
280
     1
102
RTVSPost2010PropOp29
 70
     1
102
RTVSPost2010Prop30
280
     0
102
RTVSPost2010PropOp30
 70
     1
102
RTVSPost2010Prop31
280
     0
102
RTVSPost2010PropOp31
 70
     1
102
RTVSPost2010Prop32
280
     0
102
RTVSPost2010PropOp32
 70
     1
102
RTVSPost2010Prop33
280
     0
102
RTVSPost2010PropOp33
 70
     1
102
RTVSPost2010Prop34
280
     0
102
RTVSPost2010PropOp34
 70
     1
102
RTVSPost2010Prop35
280
     0
102
RTVSPost2010PropOp35
 70
     1
102
RTVSPost2010Prop36
280
     0
102
RTVSPost2010PropOp36
 70
     1
102
RTVSPost2010Prop37
 90
       50
102
RTVSPost2010PropOp37
 70
     1
102
RTVSPost2010Prop38
140
0.0
102
RTVSPost2010PropOp38
 70
     1
102
RTVSPost2010Prop39
140
1.0
102
RTVSPost2010PropOp39
 70
     1
102
RTVSPost2010Prop40
 90
        0
102
RTVSPost2010PropOp40
 70
     1
102
RTVSPost2010Prop41ColorIndex
 90
       18
102
RTVSPost2010Prop41ColorRGB
 90
        0
102
RTVSPost2010PropOp41
 70
     1
102
RTVSPost2010Prop42
 90
       50
102
RTVSPost2010PropOp42
 70
     1
102
RTVSPost2010Prop43
 90
        3
102
RTVSPost2010PropOp43
 70
     1
102
RTVSPost2010Prop44ColorIndex
 90
        5
102
RTVSPost2010Prop44ColorRGB
 90
      255
102
RTVSPost2010PropOp44
 70
     1
102
RTVSPost2010Prop45
280
     0
102
RTVSPost2010PropOp45
 70
     1
102
RTVSPost2010Prop46
 90
       50
102
RTVSPost2010PropOp46
 70
     1
102
RTVSPost2010Prop47
 90
       50
102
RTVSPost2010PropOp47
 70
     1
102
RTVSPost2010Prop48
 90
       50
102
RTVSPost2010PropOp48
 70
     1
102
RTVSPost2010Prop49
280
     0
102
RTVSPost2010PropOp49
 70
     1
102
RTVSPost2010Prop50
 90
       50
102
RTVSPost2010PropOp50
 70
     1
102
RTVSPost2010Prop51ColorIndex
 90
      256
102
RTVSPost2010Prop51ColorRGB
 90
-16777216
102
RTVSPost2010PropOp51
 70
     0
102
RTVSPost2010Prop52
140
1.0
102
RTVSPost2010PropOp52
 70
     0
102
RTVSPost2010Prop53
 90
        2
102
RTVSPost2010PropOp53
 70
     1
102
RTVSPost2010Prop54
  1
strokes_ogs.tif
102
RTVSPost2010PropOp54
 70
     1
102
RTVSPost2010Prop55
280
     0
102
RTVSPost2010PropOp55
 70
     1
102
RTVSPost2010Prop56
140
1.0
102
RTVSPost2010PropOp56
 70
     1
102
RTVSPost2010Prop57
140
1.0
102
RTVSPost2010PropOp57
 70
     1
  0
XRECORD
  5
2C6
102
{ACAD_REACTORS
330
2C5
102
}
330
2C5
100
AcDbXrecord
280
     1
102
RTVSPropertyOp0
 70
     1
102
RTVSPropertyOp1
 70
     1
102
RTVSPropertyOp2
 70
     1
102
RTVSPropertyOp3
 70
     1
102
RTVSPropertyOp4
 70
     1
102
RTVSPropertyOp5
 70
     1
102
RTVSPropertyOp6
 70
     1
102
RTVSPropertyOp7
 70
     1
102
RTVSPropertyOp8
 70
     1
102
RTVSPropertyOp9
 70
     1
102
RTVSPropertyOp10
 70
     1
102
RTVSPropertyOp11
 70
     1
102
RTVSPropertyOp12
 70
     1
102
RTVSPropertyOp13
 70
     1
102
RTVSPropertyOp14
 70
     1
102
RTVSPropertyOp15
 70
     1
102
RTVSPropertyOp16
 70
     1
102
RTVSPropertyOp17
 70
     1
102
RTVSPropertyOp18
 70
     1
102
RTVSPropertyOp19
 70
     1
102
RTVSPropertyOp20
 70
     1
102
RTVSPropertyOp21
 70
     1
102
RTVSPropertyOp22
 70
     1
102
RTVSPropertyOp23
 70
     1
102
RTVSPropertyOp24
 70
     1
102
RTVSPropertyOp25
 70
     1
102
RTVSPropertyOp26
 70
     1
102
RTVSPropertyOp27
 70
     1
102
RTVSPropertyOp28
 70
     1
102
RTVSPropertyOp29
 70
     1
102
RTVSPropertyOp30
 70
     1
102
RTVSPropertyOp31
 70
     1
102
RTVSPropertyOp32
 70
     1
102
RTVSPropertyOp33
 70
     1
102
RTVSPropertyOp34
 70
     1
102
RTVSPropertyOp35
 70
     1
102
RTVSPropertyOp36
 70
     1
102
RTVSPropertyOp37
 70
     1
102
RTVSPropertyOp38
 70
     1
102
RTVSPropertyOp39
 70
     1
102
RTVSPropertyOp40
 70
     1
102
RTVSPropertyOp41
 70
     1
102
RTVSPropertyOp42
 70
     1
102
RTVSPropertyOp43
 70
     1
102
RTVSPropertyOp44
 70
     1
102
RTVSPropertyOp45
 70
     1
102
RTVSPropertyOp46
 70
     1
102
RTVSPropertyOp47
 70
     1
102
RTVSPropertyOp48
 70
     1
102
RTVSPropertyOp49
 70
     1
102
RTVSPropertyOp50
 70
     1
102
RTVSPropertyOp51
 70
     0
102
RTVSPropertyOp52
 70
     0
102
RTVSPropertyOp53
 70
     1
102
RTVSPropertyOp54
 70
     1
102
RTVSPropertyOp55
 70
     1
102
RTVSPropertyOp56
 70
     1
102
RTVSPropertyOp57
 70
     1
102
RTVSPost2010Prop28
280
     0
102
RTVSPost2010PropOp28
 70
     1
102
RTVSPost2010Prop29
280
     1
102
RTVSPost2010PropOp29
 70
     1
102
RTVSPost2010Prop30
280
     1
102
RTVSPost2010PropOp30
 70
     1
102
RTVSPost2010Prop31
280
     0
102
RTVSPost2010PropOp31
 70
     1
102
RTVSPost2010Prop32
280
     0
102
RTVSPost2010PropOp32
 70
     1
102
RTVSPost2010Prop33
280
     0
102
RTVSPost2010PropOp33
 70
     1
102
RTVSPost2010Prop34
280
     0
102
RTVSPost2010PropOp34
 70
     1
102
RTVSPost2010Prop35
280
     0
102
RTVSPost2010PropOp35
 70
     1
102
RTVSPost2010Prop36
280
     0
102
RTVSPost2010PropOp36
 70
     1
102
RTVSPost2010Prop37
 90
       50
102
RTVSPost2010PropOp37
 70
     1
102
RTVSPost2010Prop38
140
0.0
102
RTVSPost2010PropOp38
 70
     1
102
RTVSPost2010Prop39
140
1.0
102
RTVSPost2010PropOp39
 70
     1
102
RTVSPost2010Prop40
 90
        0
102
RTVSPost2010PropOp40
 70
     1
102
RTVSPost2010Prop41ColorIndex
 90
       18
102
RTVSPost2010Prop41ColorRGB
 90
        0
102
RTVSPost2010PropOp41
 70
     1
102
RTVSPost2010Prop42
 90
       50
102
RTVSPost2010PropOp42
 70
     1
102
RTVSPost2010Prop43
 90
        3
102
RTVSPost2010PropOp43
 70
     1
102
RTVSPost2010Prop44ColorIndex
 90
        5
102
RTVSPost2010Prop44ColorRGB
 90
      255
102
RTVSPost2010PropOp44
 70
     1
102
RTVSPost2010Prop45
280
     0
102
RTVSPost2010PropOp45
 70
     1
102
RTVSPost2010Prop46
 90
       50
102
RTVSPost2010PropOp46
 70
     1
102
RTVSPost2010Prop47
 90
       50
102
RTVSPost2010PropOp47
 70
     1
102
RTVSPost2010Prop48
 90
       50
102
RTVSPost2010PropOp48
 70
     1
102
RTVSPost2010Prop49
280
     0
102
RTVSPost2010PropOp49
 70
     1
102
RTVSPost2010Prop50
 90
       50
102
RTVSPost2010PropOp50
 70
     1
102
RTVSPost2010Prop51ColorIndex
 90
      256
102
RTVSPost2010Prop51ColorRGB
 90
-16777216
102
RTVSPost2010PropOp51
 70
     0
102
RTVSPost2010Prop52
140
1.0
102
RTVSPost2010PropOp52
 70
     0
102
RTVSPost2010Prop53
 90
        2
102
RTVSPost2010PropOp53
 70
     1
102
RTVSPost2010Prop54
  1
strokes_ogs.tif
102
RTVSPost2010PropOp54
 70
     1
102
RTVSPost2010Prop55
280
     0
102
RTVSPost2010PropOp55
 70
     1
102
RTVSPost2010Prop56
140
1.0
102
RTVSPost2010PropOp56
 70
     1
102
RTVSPost2010Prop57
140
1.0
102
RTVSPost2010PropOp57
 70
     1
  0
XRECORD
  5
2CE
102
{ACAD_REACTORS
330
2CD
102
}
330
2CD
100
AcDbXrecord
280
     1
102
RTVSPropertyOp0
 70
     1
102
RTVSPropertyOp1
 70
     1
102
RTVSPropertyOp2
 70
     1
102
RTVSPropertyOp3
 70
     1
102
RTVSPropertyOp4
 70
     1
102
RTVSPropertyOp5
 70
     1
102
RTVSPropertyOp6
 70
     1
102
RTVSPropertyOp7
 70
     1
102
RTVSPropertyOp8
 70
     1
102
RTVSPropertyOp9
 70
     1
102
RTVSPropertyOp10
 70
     1
102
RTVSPropertyOp11
 70
     1
102
RTVSPropertyOp12
 70
     1
102
RTVSPropertyOp13
 70
     1
102
RTVSPropertyOp14
 70
     1
102
RTVSPropertyOp15
 70
     1
102
RTVSPropertyOp16
 70
     1
102
RTVSPropertyOp17
 70
     1
102
RTVSPropertyOp18
 70
     1
102
RTVSPropertyOp19
 70
     1
102
RTVSPropertyOp20
 70
     1
102
RTVSPropertyOp21
 70
     1
102
RTVSPropertyOp22
 70
     1
102
RTVSPropertyOp23
 70
     1
102
RTVSPropertyOp24
 70
     1
102
RTVSPropertyOp25
 70
     1
102
RTVSPropertyOp26
 70
     1
102
RTVSPropertyOp27
 70
     1
102
RTVSPropertyOp28
 70
     1
102
RTVSPropertyOp29
 70
     1
102
RTVSPropertyOp30
 70
     1
102
RTVSPropertyOp31
 70
     1
102
RTVSPropertyOp32
 70
     1
102
RTVSPropertyOp33
 70
     1
102
RTVSPropertyOp34
 70
     1
102
RTVSPropertyOp35
 70
     1
102
RTVSPropertyOp36
 70
     1
102
RTVSPropertyOp37
 70
     1
102
RTVSPropertyOp38
 70
     1
102
RTVSPropertyOp39
 70
     1
102
RTVSPropertyOp40
 70
     1
102
RTVSPropertyOp41
 70
     1
102
RTVSPropertyOp42
 70
     1
102
RTVSPropertyOp43
 70
     1
102
RTVSPropertyOp44
 70
     1
102
RTVSPropertyOp45
 70
     1
102
RTVSPropertyOp46
 70
     1
102
RTVSPropertyOp47
 70
     1
102
RTVSPropertyOp48
 70
     1
102
RTVSPropertyOp49
 70
     1
102
RTVSPropertyOp50
 70
     1
102
RTVSPropertyOp51
 70
     0
102
RTVSPropertyOp52
 70
     0
102
RTVSPropertyOp53
 70
     1
102
RTVSPropertyOp54
 70
     1
102
RTVSPropertyOp55
 70
     1
102
RTVSPropertyOp56
 70
     1
102
RTVSPropertyOp57
 70
     1
102
RTVSPost2010Prop28
280
     0
102
RTVSPost2010PropOp28
 70
     1
102
RTVSPost2010Prop29
280
     1
102
RTVSPost2010PropOp29
 70
     1
102
RTVSPost2010Prop30
280
     1
102
RTVSPost2010PropOp30
 70
     1
102
RTVSPost2010Prop31
280
     0
102
RTVSPost2010PropOp31
 70
     1
102
RTVSPost2010Prop32
280
     0
102
RTVSPost2010PropOp32
 70
     1
102
RTVSPost2010Prop33
280
     0
102
RTVSPost2010PropOp33
 70
     1
102
RTVSPost2010Prop34
280
     0
102
RTVSPost2010PropOp34
 70
     1
102
RTVSPost2010Prop35
280
     0
102
RTVSPost2010PropOp35
 70
     1
102
RTVSPost2010Prop36
280
     0
102
RTVSPost2010PropOp36
 70
     1
102
RTVSPost2010Prop37
 90
       50
102
RTVSPost2010PropOp37
 70
     1
102
RTVSPost2010Prop38
140
0.0
102
RTVSPost2010PropOp38
 70
     1
102
RTVSPost2010Prop39
140
1.0
102
RTVSPost2010PropOp39
 70
     1
102
RTVSPost2010Prop40
 90
        0
102
RTVSPost2010PropOp40
 70
     1
102
RTVSPost2010Prop41ColorIndex
 90
       18
102
RTVSPost2010Prop41ColorRGB
 90
        0
102
RTVSPost2010PropOp41
 70
     1
102
RTVSPost2010Prop42
 90
       50
102
RTVSPost2010PropOp42
 70
     1
102
RTVSPost2010Prop43
 90
        3
102
RTVSPost2010PropOp43
 70
     1
102
RTVSPost2010Prop44ColorIndex
 90
        5
102
RTVSPost2010Prop44ColorRGB
 90
      255
102
RTVSPost2010PropOp44
 70
     1
102
RTVSPost2010Prop45
280
     0
102
RTVSPost2010PropOp45
 70
     1
102
RTVSPost2010Prop46
 90
       50
102
RTVSPost2010PropOp46
 70
     1
102
RTVSPost2010Prop47
 90
       50
102
RTVSPost2010PropOp47
 70
     1
102
RTVSPost2010Prop48
 90
       50
102
RTVSPost2010PropOp48
 70
     1
102
RTVSPost2010Prop49
280
     0
102
RTVSPost2010PropOp49
 70
     1
102
RTVSPost2010Prop50
 90
       50
102
RTVSPost2010PropOp50
 70
     1
102
RTVSPost2010Prop51ColorIndex
 90
      256
102
RTVSPost2010Prop51ColorRGB
 90
-16777216
102
RTVSPost2010PropOp51
 70
     0
102
RTVSPost2010Prop52
140
1.0
102
RTVSPost2010PropOp52
 70
     0
102
RTVSPost2010Prop53
 90
        2
102
RTVSPost2010PropOp53
 70
     1
102
RTVSPost2010Prop54
  1
strokes_ogs.tif
102
RTVSPost2010PropOp54
 70
     1
102
RTVSPost2010Prop55
280
     0
102
RTVSPost2010PropOp55
 70
     1
102
RTVSPost2010Prop56
140
1.0
102
RTVSPost2010PropOp56
 70
     1
102
RTVSPost2010Prop57
140
1.0
102
RTVSPost2010PropOp57
 70
     1
  0
XRECORD
  5
2D6
102
{ACAD_REACTORS
330
2D5
102
}
330
2D5
100
AcDbXrecord
280
     1
102
RTVSPropertyOp0
 70
     1
102
RTVSPropertyOp1
 70
     1
102
RTVSPropertyOp2
 70
     1
102
RTVSPropertyOp3
 70
     1
102
RTVSPropertyOp4
 70
     1
102
RTVSPropertyOp5
 70
     1
102
RTVSPropertyOp6
 70
     1
102
RTVSPropertyOp7
 70
     1
102
RTVSPropertyOp8
 70
     1
102
RTVSPropertyOp9
 70
     1
102
RTVSPropertyOp10
 70
     1
102
RTVSPropertyOp11
 70
     1
102
RTVSPropertyOp12
 70
     1
102
RTVSPropertyOp13
 70
     1
102
RTVSPropertyOp14
 70
     1
102
RTVSPropertyOp15
 70
     1
102
RTVSPropertyOp16
 70
     1
102
RTVSPropertyOp17
 70
     1
102
RTVSPropertyOp18
 70
     1
102
RTVSPropertyOp19
 70
     1
102
RTVSPropertyOp20
 70
     1
102
RTVSPropertyOp21
 70
     1
102
RTVSPropertyOp22
 70
     1
102
RTVSPropertyOp23
 70
     1
102
RTVSPropertyOp24
 70
     1
102
RTVSPropertyOp25
 70
     1
102
RTVSPropertyOp26
 70
     1
102
RTVSPropertyOp27
 70
     1
102
RTVSPropertyOp28
 70
     1
102
RTVSPropertyOp29
 70
     1
102
RTVSPropertyOp30
 70
     1
102
RTVSPropertyOp31
 70
     1
102
RTVSPropertyOp32
 70
     1
102
RTVSPropertyOp33
 70
     1
102
RTVSPropertyOp34
 70
     1
102
RTVSPropertyOp35
 70
     1
102
RTVSPropertyOp36
 70
     1
102
RTVSPropertyOp37
 70
     1
102
RTVSPropertyOp38
 70
     1
102
RTVSPropertyOp39
 70
     1
102
RTVSPropertyOp40
 70
     1
102
RTVSPropertyOp41
 70
     1
102
RTVSPropertyOp42
 70
     1
102
RTVSPropertyOp43
 70
     1
102
RTVSPropertyOp44
 70
     1
102
RTVSPropertyOp45
 70
     1
102
RTVSPropertyOp46
 70
     1
102
RTVSPropertyOp47
 70
     1
102
RTVSPropertyOp48
 70
     1
102
RTVSPropertyOp49
 70
     1
102
RTVSPropertyOp50
 70
     1
102
RTVSPropertyOp51
 70
     0
102
RTVSPropertyOp52
 70
     0
102
RTVSPropertyOp53
 70
     1
102
RTVSPropertyOp54
 70
     1
102
RTVSPropertyOp55
 70
     1
102
RTVSPropertyOp56
 70
     1
102
RTVSPropertyOp57
 70
     1
102
RTVSPost2010Prop28
280
     0
102
RTVSPost2010PropOp28
 70
     1
102
RTVSPost2010Prop29
280
     1
102
RTVSPost2010PropOp29
 70
     1
102
RTVSPost2010Prop30
280
     1
102
RTVSPost2010PropOp30
 70
     1
102
RTVSPost2010Prop31
280
     0
102
RTVSPost2010PropOp31
 70
     1
102
RTVSPost2010Prop32
280
     0
102
RTVSPost2010PropOp32
 70
     1
102
RTVSPost2010Prop33
280
     0
102
RTVSPost2010PropOp33
 70
     1
102
RTVSPost2010Prop34
280
     0
102
RTVSPost2010PropOp34
 70
     1
102
RTVSPost2010Prop35
280
     0
102
RTVSPost2010PropOp35
 70
     1
102
RTVSPost2010Prop36
280
     0
102
RTVSPost2010PropOp36
 70
     1
102
RTVSPost2010Prop37
 90
       50
102
RTVSPost2010PropOp37
 70
     1
102
RTVSPost2010Prop38
140
0.0
102
RTVSPost2010PropOp38
 70
     1
102
RTVSPost2010Prop39
140
1.0
102
RTVSPost2010PropOp39
 70
     1
102
RTVSPost2010Prop40
 90
        0
102
RTVSPost2010PropOp40
 70
     1
102
RTVSPost2010Prop41ColorIndex
 90
       18
102
RTVSPost2010Prop41ColorRGB
 90
        0
102
RTVSPost2010PropOp41
 70
     1
102
RTVSPost2010Prop42
 90
       50
102
RTVSPost2010PropOp42
 70
     1
102
RTVSPost2010Prop43
 90
        3
102
RTVSPost2010PropOp43
 70
     1
102
RTVSPost2010Prop44ColorIndex
 90
        5
102
RTVSPost2010Prop44ColorRGB
 90
      255
102
RTVSPost2010PropOp44
 70
     1
102
RTVSPost2010Prop45
280
     0
102
RTVSPost2010PropOp45
 70
     1
102
RTVSPost2010Prop46
 90
       50
102
RTVSPost2010PropOp46
 70
     1
102
RTVSPost2010Prop47
 90
       50
102
RTVSPost2010PropOp47
 70
     1
102
RTVSPost2010Prop48
 90
       50
102
RTVSPost2010PropOp48
 70
     1
102
RTVSPost2010Prop49
280
     0
102
RTVSPost2010PropOp49
 70
     1
102
RTVSPost2010Prop50
 90
       50
102
RTVSPost2010PropOp50
 70
     1
102
RTVSPost2010Prop51ColorIndex
 90
      256
102
RTVSPost2010Prop51ColorRGB
 90
-16777216
102
RTVSPost2010PropOp51
 70
     0
102
RTVSPost2010Prop52
140
1.0
102
RTVSPost2010PropOp52
 70
     0
102
RTVSPost2010Prop53
 90
        2
102
RTVSPost2010PropOp53
 70
     1
102
RTVSPost2010Prop54
  1
strokes_ogs.tif
102
RTVSPost2010PropOp54
 70
     1
102
RTVSPost2010Prop55
280
     0
102
RTVSPost2010PropOp55
 70
     1
102
RTVSPost2010Prop56
140
1.0
102
RTVSPost2010PropOp56
 70
     1
102
RTVSPost2010Prop57
140
1.0
102
RTVSPost2010PropOp57
 70
     1
  0
XRECORD
  5
2CA
102
{ACAD_REACTORS
330
2C9
102
}
330
2C9
100
AcDbXrecord
280
     1
102
RTVSPropertyOp0
 70
     1
102
RTVSPropertyOp1
 70
     1
102
RTVSPropertyOp2
 70
     1
102
RTVSPropertyOp3
 70
     1
102
RTVSPropertyOp4
 70
     1
102
RTVSPropertyOp5
 70
     1
102
RTVSPropertyOp6
 70
     1
102
RTVSPropertyOp7
 70
     1
102
RTVSPropertyOp8
 70
     1
102
RTVSPropertyOp9
 70
     1
102
RTVSPropertyOp10
 70
     1
102
RTVSPropertyOp11
 70
     1
102
RTVSPropertyOp12
 70
     1
102
RTVSPropertyOp13
 70
     1
102
RTVSPropertyOp14
 70
     1
102
RTVSPropertyOp15
 70
     1
102
RTVSPropertyOp16
 70
     1
102
RTVSPropertyOp17
 70
     1
102
RTVSPropertyOp18
 70
     1
102
RTVSPropertyOp19
 70
     1
102
RTVSPropertyOp20
 70
     1
102
RTVSPropertyOp21
 70
     1
102
RTVSPropertyOp22
 70
     1
102
RTVSPropertyOp23
 70
     1
102
RTVSPropertyOp24
 70
     1
102
RTVSPropertyOp25
 70
     1
102
RTVSPropertyOp26
 70
     1
102
RTVSPropertyOp27
 70
     1
102
RTVSPropertyOp28
 70
     1
102
RTVSPropertyOp29
 70
     1
102
RTVSPropertyOp30
 70
     1
102
RTVSPropertyOp31
 70
     1
102
RTVSPropertyOp32
 70
     1
102
RTVSPropertyOp33
 70
     1
102
RTVSPropertyOp34
 70
     1
102
RTVSPropertyOp35
 70
     1
102
RTVSPropertyOp36
 70
     1
102
RTVSPropertyOp37
 70
     1
102
RTVSPropertyOp38
 70
     1
102
RTVSPropertyOp39
 70
     1
102
RTVSPropertyOp40
 70
     1
102
RTVSPropertyOp41
 70
     1
102
RTVSPropertyOp42
 70
     1
102
RTVSPropertyOp43
 70
     1
102
RTVSPropertyOp44
 70
     1
102
RTVSPropertyOp45
 70
     1
102
RTVSPropertyOp46
 70
     1
102
RTVSPropertyOp47
 70
     1
102
RTVSPropertyOp48
 70
     1
102
RTVSPropertyOp49
 70
     1
102
RTVSPropertyOp50
 70
     1
102
RTVSPropertyOp51
 70
     0
102
RTVSPropertyOp52
 70
     0
102
RTVSPropertyOp53
 70
     1
102
RTVSPropertyOp54
 70
     1
102
RTVSPropertyOp55
 70
     1
102
RTVSPropertyOp56
 70
     1
102
RTVSPropertyOp57
 70
     1
102
RTVSPost2010Prop28
280
     0
102
RTVSPost2010PropOp28
 70
     1
102
RTVSPost2010Prop29
280
     1
102
RTVSPost2010PropOp29
 70
     1
102
RTVSPost2010Prop30
280
     1
102
RTVSPost2010PropOp30
 70
     1
102
RTVSPost2010Prop31
280
     0
102
RTVSPost2010PropOp31
 70
     1
102
RTVSPost2010Prop32
280
     0
102
RTVSPost2010PropOp32
 70
     1
102
RTVSPost2010Prop33
280
     0
102
RTVSPost2010PropOp33
 70
     1
102
RTVSPost2010Prop34
280
     0
102
RTVSPost2010PropOp34
 70
     1
102
RTVSPost2010Prop35
280
     0
102
RTVSPost2010PropOp35
 70
     1
102
RTVSPost2010Prop36
280
     0
102
RTVSPost2010PropOp36
 70
     1
102
RTVSPost2010Prop37
 90
       50
102
RTVSPost2010PropOp37
 70
     1
102
RTVSPost2010Prop38
140
0.0
102
RTVSPost2010PropOp38
 70
     1
102
RTVSPost2010Prop39
140
1.0
102
RTVSPost2010PropOp39
 70
     1
102
RTVSPost2010Prop40
 90
        0
102
RTVSPost2010PropOp40
 70
     1
102
RTVSPost2010Prop41ColorIndex
 90
       18
102
RTVSPost2010Prop41ColorRGB
 90
        0
102
RTVSPost2010PropOp41
 70
     1
102
RTVSPost2010Prop42
 90
       50
102
RTVSPost2010PropOp42
 70
     1
102
RTVSPost2010Prop43
 90
        3
102
RTVSPost2010PropOp43
 70
     1
102
RTVSPost2010Prop44ColorIndex
 90
        5
102
RTVSPost2010Prop44ColorRGB
 90
      255
102
RTVSPost2010PropOp44
 70
     1
102
RTVSPost2010Prop45
280
     0
102
RTVSPost2010PropOp45
 70
     1
102
RTVSPost2010Prop46
 90
       50
102
RTVSPost2010PropOp46
 70
     1
102
RTVSPost2010Prop47
 90
       50
102
RTVSPost2010PropOp47
 70
     1
102
RTVSPost2010Prop48
 90
       50
102
RTVSPost2010PropOp48
 70
     1
102
RTVSPost2010Prop49
280
     0
102
RTVSPost2010PropOp49
 70
     1
102
RTVSPost2010Prop50
 90
       50
102
RTVSPost2010PropOp50
 70
     1
102
RTVSPost2010Prop51ColorIndex
 90
      256
102
RTVSPost2010Prop51ColorRGB
 90
-16777216
102
RTVSPost2010PropOp51
 70
     0
102
RTVSPost2010Prop52
140
1.0
102
RTVSPost2010PropOp52
 70
     0
102
RTVSPost2010Prop53
 90
        2
102
RTVSPost2010PropOp53
 70
     1
102
RTVSPost2010Prop54
  1
strokes_ogs.tif
102
RTVSPost2010PropOp54
 70
     1
102
RTVSPost2010Prop55
280
     0
102
RTVSPost2010PropOp55
 70
     1
102
RTVSPost2010Prop56
140
1.0
102
RTVSPost2010PropOp56
 70
     1
102
RTVSPost2010Prop57
140
1.0
102
RTVSPost2010PropOp57
 70
     1
  0
XRECORD
  5
2CC
102
{ACAD_REACTORS
330
2CB
102
}
330
2CB
100
AcDbXrecord
280
     1
102
RTVSPropertyOp0
 70
     1
102
RTVSPropertyOp1
 70
     1
102
RTVSPropertyOp2
 70
     1
102
RTVSPropertyOp3
 70
     1
102
RTVSPropertyOp4
 70
     1
102
RTVSPropertyOp5
 70
     1
102
RTVSPropertyOp6
 70
     1
102
RTVSPropertyOp7
 70
     1
102
RTVSPropertyOp8
 70
     1
102
RTVSPropertyOp9
 70
     1
102
RTVSPropertyOp10
 70
     1
102
RTVSPropertyOp11
 70
     1
102
RTVSPropertyOp12
 70
     1
102
RTVSPropertyOp13
 70
     1
102
RTVSPropertyOp14
 70
     1
102
RTVSPropertyOp15
 70
     1
102
RTVSPropertyOp16
 70
     1
102
RTVSPropertyOp17
 70
     1
102
RTVSPropertyOp18
 70
     1
102
RTVSPropertyOp19
 70
     1
102
RTVSPropertyOp20
 70
     1
102
RTVSPropertyOp21
 70
     1
102
RTVSPropertyOp22
 70
     1
102
RTVSPropertyOp23
 70
     1
102
RTVSPropertyOp24
 70
     1
102
RTVSPropertyOp25
 70
     1
102
RTVSPropertyOp26
 70
     1
102
RTVSPropertyOp27
 70
     1
102
RTVSPropertyOp28
 70
     1
102
RTVSPropertyOp29
 70
     1
102
RTVSPropertyOp30
 70
     1
102
RTVSPropertyOp31
 70
     1
102
RTVSPropertyOp32
 70
     1
102
RTVSPropertyOp33
 70
     1
102
RTVSPropertyOp34
 70
     1
102
RTVSPropertyOp35
 70
     1
102
RTVSPropertyOp36
 70
     1
102
RTVSPropertyOp37
 70
     1
102
RTVSPropertyOp38
 70
     1
102
RTVSPropertyOp39
 70
     1
102
RTVSPropertyOp40
 70
     1
102
RTVSPropertyOp41
 70
     1
102
RTVSPropertyOp42
 70
     1
102
RTVSPropertyOp43
 70
     1
102
RTVSPropertyOp44
 70
     1
102
RTVSPropertyOp45
 70
     1
102
RTVSPropertyOp46
 70
     1
102
RTVSPropertyOp47
 70
     1
102
RTVSPropertyOp48
 70
     1
102
RTVSPropertyOp49
 70
     1
102
RTVSPropertyOp50
 70
     1
102
RTVSPropertyOp51
 70
     0
102
RTVSPropertyOp52
 70
     0
102
RTVSPropertyOp53
 70
     1
102
RTVSPropertyOp54
 70
     1
102
RTVSPropertyOp55
 70
     1
102
RTVSPropertyOp56
 70
     1
102
RTVSPropertyOp57
 70
     1
102
RTVSPost2010Prop28
280
     0
102
RTVSPost2010PropOp28
 70
     1
102
RTVSPost2010Prop29
280
     1
102
RTVSPost2010PropOp29
 70
     1
102
RTVSPost2010Prop30
280
     1
102
RTVSPost2010PropOp30
 70
     1
102
RTVSPost2010Prop31
280
     0
102
RTVSPost2010PropOp31
 70
     1
102
RTVSPost2010Prop32
280
     0
102
RTVSPost2010PropOp32
 70
     1
102
RTVSPost2010Prop33
280
     0
102
RTVSPost2010PropOp33
 70
     1
102
RTVSPost2010Prop34
280
     0
102
RTVSPost2010PropOp34
 70
     1
102
RTVSPost2010Prop35
280
     0
102
RTVSPost2010PropOp35
 70
     1
102
RTVSPost2010Prop36
280
     0
102
RTVSPost2010PropOp36
 70
     1
102
RTVSPost2010Prop37
 90
       50
102
RTVSPost2010PropOp37
 70
     1
102
RTVSPost2010Prop38
140
0.0
102
RTVSPost2010PropOp38
 70
     1
102
RTVSPost2010Prop39
140
1.0
102
RTVSPost2010PropOp39
 70
     1
102
RTVSPost2010Prop40
 90
        0
102
RTVSPost2010PropOp40
 70
     1
102
RTVSPost2010Prop41ColorIndex
 90
       18
102
RTVSPost2010Prop41ColorRGB
 90
        0
102
RTVSPost2010PropOp41
 70
     1
102
RTVSPost2010Prop42
 90
       50
102
RTVSPost2010PropOp42
 70
     1
102
RTVSPost2010Prop43
 90
        3
102
RTVSPost2010PropOp43
 70
     1
102
RTVSPost2010Prop44ColorIndex
 90
        5
102
RTVSPost2010Prop44ColorRGB
 90
      255
102
RTVSPost2010PropOp44
 70
     1
102
RTVSPost2010Prop45
280
     0
102
RTVSPost2010PropOp45
 70
     1
102
RTVSPost2010Prop46
 90
       50
102
RTVSPost2010PropOp46
 70
     1
102
RTVSPost2010Prop47
 90
       50
102
RTVSPost2010PropOp47
 70
     1
102
RTVSPost2010Prop48
 90
       50
102
RTVSPost2010PropOp48
 70
     1
102
RTVSPost2010Prop49
280
     0
102
RTVSPost2010PropOp49
 70
     1
102
RTVSPost2010Prop50
 90
       50
102
RTVSPost2010PropOp50
 70
     1
102
RTVSPost2010Prop51ColorIndex
 90
      256
102
RTVSPost2010Prop51ColorRGB
 90
-16777216
102
RTVSPost2010PropOp51
 70
     0
102
RTVSPost2010Prop52
140
1.0
102
RTVSPost2010PropOp52
 70
     0
102
RTVSPost2010Prop53
 90
        2
102
RTVSPost2010PropOp53
 70
     1
102
RTVSPost2010Prop54
  1
strokes_ogs.tif
102
RTVSPost2010PropOp54
 70
     1
102
RTVSPost2010Prop55
280
     0
102
RTVSPost2010PropOp55
 70
     1
102
RTVSPost2010Prop56
140
1.0
102
RTVSPost2010PropOp56
 70
     1
102
RTVSPost2010Prop57
140
1.0
102
RTVSPost2010PropOp57
 70
     1
  0
XRECORD
  5
2DC
102
{ACAD_REACTORS
330
2DB
102
}
330
2DB
100
AcDbXrecord
280
     1
102
RTVSPropertyOp0
 70
     0
102
RTVSPropertyOp1
 70
     0
102
RTVSPropertyOp2
 70
     0
102
RTVSPropertyOp3
 70
     0
102
RTVSPropertyOp4
 70
     0
102
RTVSPropertyOp5
 70
     0
102
RTVSPropertyOp6
 70
     0
102
RTVSPropertyOp7
 70
     0
102
RTVSPropertyOp8
 70
     0
102
RTVSPropertyOp9
 70
     0
102
RTVSPropertyOp10
 70
     0
102
RTVSPropertyOp11
 70
     0
102
RTVSPropertyOp12
 70
     0
102
RTVSPropertyOp13
 70
     0
102
RTVSPropertyOp14
 70
     2
102
RTVSPropertyOp15
 70
     0
102
RTVSPropertyOp16
 70
     0
102
RTVSPropertyOp17
 70
     0
102
RTVSPropertyOp18
 70
     0
102
RTVSPropertyOp19
 70
     0
102
RTVSPropertyOp20
 70
     0
102
RTVSPropertyOp21
 70
     0
102
RTVSPropertyOp22
 70
     0
102
RTVSPropertyOp23
 70
     0
102
RTVSPropertyOp24
 70
     0
102
RTVSPropertyOp25
 70
     0
102
RTVSPropertyOp26
 70
     0
102
RTVSPropertyOp27
 70
     0
102
RTVSPropertyOp28
 70
     0
102
RTVSPropertyOp29
 70
     0
102
RTVSPropertyOp30
 70
     0
102
RTVSPropertyOp31
 70
     0
102
RTVSPropertyOp32
 70
     0
102
RTVSPropertyOp33
 70
     0
102
RTVSPropertyOp34
 70
     0
102
RTVSPropertyOp35
 70
     0
102
RTVSPropertyOp36
 70
     0
102
RTVSPropertyOp37
 70
     0
102
RTVSPropertyOp38
 70
     0
102
RTVSPropertyOp39
 70
     0
102
RTVSPropertyOp40
 70
     0
102
RTVSPropertyOp41
 70
     0
102
RTVSPropertyOp42
 70
     0
102
RTVSPropertyOp43
 70
     0
102
RTVSPropertyOp44
 70
     0
102
RTVSPropertyOp45
 70
     0
102
RTVSPropertyOp46
 70
     0
102
RTVSPropertyOp47
 70
     0
102
RTVSPropertyOp48
 70
     0
102
RTVSPropertyOp49
 70
     0
102
RTVSPropertyOp50
 70
     0
102
RTVSPropertyOp51
 70
     0
102
RTVSPropertyOp52
 70
     0
102
RTVSPropertyOp53
 70
     0
102
RTVSPropertyOp54
 70
     0
102
RTVSPropertyOp55
 70
     0
102
RTVSPropertyOp56
 70
     0
102
RTVSPropertyOp57
 70
     0
102
RTVSPost2010Prop28
280
     0
102
RTVSPost2010PropOp28
 70
     0
102
RTVSPost2010Prop29
280
     1
102
RTVSPost2010PropOp29
 70
     0
102
RTVSPost2010Prop30
280
     1
102
RTVSPost2010PropOp30
 70
     0
102
RTVSPost2010Prop31
280
     0
102
RTVSPost2010PropOp31
 70
     0
102
RTVSPost2010Prop32
280
     0
102
RTVSPost2010PropOp32
 70
     0
102
RTVSPost2010Prop33
280
     0
102
RTVSPost2010PropOp33
 70
     0
102
RTVSPost2010Prop34
280
     0
102
RTVSPost2010PropOp34
 70
     0
102
RTVSPost2010Prop35
280
     0
102
RTVSPost2010PropOp35
 70
     0
102
RTVSPost2010Prop36
280
     0
102
RTVSPost2010PropOp36
 70
     0
102
RTVSPost2010Prop37
 90
       50
102
RTVSPost2010PropOp37
 70
     0
102
RTVSPost2010Prop38
140
0.0
102
RTVSPost2010PropOp38
 70
     0
102
RTVSPost2010Prop39
140
1.0
102
RTVSPost2010PropOp39
 70
     0
102
RTVSPost2010Prop40
 90
        0
102
RTVSPost2010PropOp40
 70
     0
102
RTVSPost2010Prop41ColorIndex
 90
       18
102
RTVSPost2010Prop41ColorRGB
 90
        0
102
RTVSPost2010PropOp41
 70
     0
102
RTVSPost2010Prop42
 90
       50
102
RTVSPost2010PropOp42
 70
     0
102
RTVSPost2010Prop43
 90
        3
102
RTVSPost2010PropOp43
 70
     0
102
RTVSPost2010Prop44ColorIndex
 90
        5
102
RTVSPost2010Prop44ColorRGB
 90
      255
102
RTVSPost2010PropOp44
 70
     0
102
RTVSPost2010Prop45
280
     0
102
RTVSPost2010PropOp45
 70
     0
102
RTVSPost2010Prop46
 90
       50
102
RTVSPost2010PropOp46
 70
     0
102
RTVSPost2010Prop47
 90
       50
102
RTVSPost2010PropOp47
 70
     0
102
RTVSPost2010Prop48
 90
       50
102
RTVSPost2010PropOp48
 70
     0
102
RTVSPost2010Prop49
280
     0
102
RTVSPost2010PropOp49
 70
     0
102
RTVSPost2010Prop50
 90
       50
102
RTVSPost2010PropOp50
 70
     0
102
RTVSPost2010Prop51ColorIndex
 90
      256
102
RTVSPost2010Prop51ColorRGB
 90
-16777216
102
RTVSPost2010PropOp51
 70
     0
102
RTVSPost2010Prop52
140
1.0
102
RTVSPost2010PropOp52
 70
     0
102
RTVSPost2010Prop53
 90
        2
102
RTVSPost2010PropOp53
 70
     0
102
RTVSPost2010Prop54
  1
strokes_ogs.tif
102
RTVSPost2010PropOp54
 70
     0
102
RTVSPost2010Prop55
280
     0
102
RTVSPost2010PropOp55
 70
     0
102
RTVSPost2010Prop56
140
1.0
102
RTVSPost2010PropOp56
 70
     0
102
RTVSPost2010Prop57
140
1.0
102
RTVSPost2010PropOp57
 70
     0
  0
XRECORD
  5
2D4
102
{ACAD_REACTORS
330
2D3
102
}
330
2D3
100
AcDbXrecord
280
     1
102
RTVSPropertyOp0
 70
     1
102
RTVSPropertyOp1
 70
     1
102
RTVSPropertyOp2
 70
     1
102
RTVSPropertyOp3
 70
     1
102
RTVSPropertyOp4
 70
     1
102
RTVSPropertyOp5
 70
     1
102
RTVSPropertyOp6
 70
     1
102
RTVSPropertyOp7
 70
     1
102
RTVSPropertyOp8
 70
     1
102
RTVSPropertyOp9
 70
     1
102
RTVSPropertyOp10
 70
     1
102
RTVSPropertyOp11
 70
     1
102
RTVSPropertyOp12
 70
     1
102
RTVSPropertyOp13
 70
     1
102
RTVSPropertyOp14
 70
     1
102
RTVSPropertyOp15
 70
     1
102
RTVSPropertyOp16
 70
     1
102
RTVSPropertyOp17
 70
     1
102
RTVSPropertyOp18
 70
     1
102
RTVSPropertyOp19
 70
     1
102
RTVSPropertyOp20
 70
     1
102
RTVSPropertyOp21
 70
     1
102
RTVSPropertyOp22
 70
     1
102
RTVSPropertyOp23
 70
     1
102
RTVSPropertyOp24
 70
     1
102
RTVSPropertyOp25
 70
     1
102
RTVSPropertyOp26
 70
     1
102
RTVSPropertyOp27
 70
     1
102
RTVSPropertyOp28
 70
     1
102
RTVSPropertyOp29
 70
     1
102
RTVSPropertyOp30
 70
     1
102
RTVSPropertyOp31
 70
     1
102
RTVSPropertyOp32
 70
     1
102
RTVSPropertyOp33
 70
     1
102
RTVSPropertyOp34
 70
     1
102
RTVSPropertyOp35
 70
     1
102
RTVSPropertyOp36
 70
     1
102
RTVSPropertyOp37
 70
     1
102
RTVSPropertyOp38
 70
     1
102
RTVSPropertyOp39
 70
     1
102
RTVSPropertyOp40
 70
     1
102
RTVSPropertyOp41
 70
     1
102
RTVSPropertyOp42
 70
     1
102
RTVSPropertyOp43
 70
     1
102
RTVSPropertyOp44
 70
     1
102
RTVSPropertyOp45
 70
     1
102
RTVSPropertyOp46
 70
     1
102
RTVSPropertyOp47
 70
     1
102
RTVSPropertyOp48
 70
     1
102
RTVSPropertyOp49
 70
     1
102
RTVSPropertyOp50
 70
     1
102
RTVSPropertyOp51
 70
     0
102
RTVSPropertyOp52
 70
     0
102
RTVSPropertyOp53
 70
     1
102
RTVSPropertyOp54
 70
     1
102
RTVSPropertyOp55
 70
     1
102
RTVSPropertyOp56
 70
     1
102
RTVSPropertyOp57
 70
     1
102
RTVSPost2010Prop28
280
     0
102
RTVSPost2010PropOp28
 70
     1
102
RTVSPost2010Prop29
280
     1
102
RTVSPost2010PropOp29
 70
     1
102
RTVSPost2010Prop30
280
     1
102
RTVSPost2010PropOp30
 70
     1
102
RTVSPost2010Prop31
280
     0
102
RTVSPost2010PropOp31
 70
     1
102
RTVSPost2010Prop32
280
     0
102
RTVSPost2010PropOp32
 70
     1
102
RTVSPost2010Prop33
280
     0
102
RTVSPost2010PropOp33
 70
     1
102
RTVSPost2010Prop34
280
     0
102
RTVSPost2010PropOp34
 70
     1
102
RTVSPost2010Prop35
280
     0
102
RTVSPost2010PropOp35
 70
     1
102
RTVSPost2010Prop36
280
     0
102
RTVSPost2010PropOp36
 70
     1
102
RTVSPost2010Prop37
 90
       50
102
RTVSPost2010PropOp37
 70
     1
102
RTVSPost2010Prop38
140
0.0
102
RTVSPost2010PropOp38
 70
     1
102
RTVSPost2010Prop39
140
1.0
102
RTVSPost2010PropOp39
 70
     1
102
RTVSPost2010Prop40
 90
        0
102
RTVSPost2010PropOp40
 70
     1
102
RTVSPost2010Prop41ColorIndex
 90
       18
102
RTVSPost2010Prop41ColorRGB
 90
        0
102
RTVSPost2010PropOp41
 70
     1
102
RTVSPost2010Prop42
 90
       50
102
RTVSPost2010PropOp42
 70
     1
102
RTVSPost2010Prop43
 90
        3
102
RTVSPost2010PropOp43
 70
     1
102
RTVSPost2010Prop44ColorIndex
 90
        5
102
RTVSPost2010Prop44ColorRGB
 90
      255
102
RTVSPost2010PropOp44
 70
     1
102
RTVSPost2010Prop45
280
     0
102
RTVSPost2010PropOp45
 70
     1
102
RTVSPost2010Prop46
 90
       50
102
RTVSPost2010PropOp46
 70
     1
102
RTVSPost2010Prop47
 90
       50
102
RTVSPost2010PropOp47
 70
     1
102
RTVSPost2010Prop48
 90
       50
102
RTVSPost2010PropOp48
 70
     1
102
RTVSPost2010Prop49
280
     0
102
RTVSPost2010PropOp49
 70
     1
102
RTVSPost2010Prop50
 90
       50
102
RTVSPost2010PropOp50
 70
     1
102
RTVSPost2010Prop51ColorIndex
 90
      256
102
RTVSPost2010Prop51ColorRGB
 90
-16777216
102
RTVSPost2010PropOp51
 70
     0
102
RTVSPost2010Prop52
140
1.0
102
RTVSPost2010PropOp52
 70
     0
102
RTVSPost2010Prop53
 90
        2
102
RTVSPost2010PropOp53
 70
     1
102
RTVSPost2010Prop54
  1
strokes_ogs.tif
102
RTVSPost2010PropOp54
 70
     1
102
RTVSPost2010Prop55
280
     0
102
RTVSPost2010PropOp55
 70
     1
102
RTVSPost2010Prop56
140
1.0
102
RTVSPost2010PropOp56
 70
     1
102
RTVSPost2010Prop57
140
1.0
102
RTVSPost2010PropOp57
 70
     1
  0
XRECORD
  5
2B8
102
{ACAD_REACTORS
330
2B7
102
}
330
2B7
100
AcDbXrecord
280
     1
102
RTVSPropertyOp0
 70
     1
102
RTVSPropertyOp1
 70
     1
102
RTVSPropertyOp2
 70
     1
102
RTVSPropertyOp3
 70
     1
102
RTVSPropertyOp4
 70
     1
102
RTVSPropertyOp5
 70
     1
102
RTVSPropertyOp6
 70
     1
102
RTVSPropertyOp7
 70
     1
102
RTVSPropertyOp8
 70
     1
102
RTVSPropertyOp9
 70
     1
102
RTVSPropertyOp10
 70
     1
102
RTVSPropertyOp11
 70
     1
102
RTVSPropertyOp12
 70
     1
102
RTVSPropertyOp13
 70
     1
102
RTVSPropertyOp14
 70
     1
102
RTVSPropertyOp15
 70
     1
102
RTVSPropertyOp16
 70
     1
102
RTVSPropertyOp17
 70
     1
102
RTVSPropertyOp18
 70
     1
102
RTVSPropertyOp19
 70
     1
102
RTVSPropertyOp20
 70
     1
102
RTVSPropertyOp21
 70
     1
102
RTVSPropertyOp22
 70
     1
102
RTVSPropertyOp23
 70
     1
102
RTVSPropertyOp24
 70
     1
102
RTVSPropertyOp25
 70
     1
102
RTVSPropertyOp26
 70
     1
102
RTVSPropertyOp27
 70
     1
102
RTVSPropertyOp28
 70
     1
102
RTVSPropertyOp29
 70
     1
102
RTVSPropertyOp30
 70
     1
102
RTVSPropertyOp31
 70
     1
102
RTVSPropertyOp32
 70
     1
102
RTVSPropertyOp33
 70
     1
102
RTVSPropertyOp34
 70
     1
102
RTVSPropertyOp35
 70
     1
102
RTVSPropertyOp36
 70
     1
102
RTVSPropertyOp37
 70
     1
102
RTVSPropertyOp38
 70
     1
102
RTVSPropertyOp39
 70
     1
102
RTVSPropertyOp40
 70
     1
102
RTVSPropertyOp41
 70
     1
102
RTVSPropertyOp42
 70
     1
102
RTVSPropertyOp43
 70
     1
102
RTVSPropertyOp44
 70
     1
102
RTVSPropertyOp45
 70
     1
102
RTVSPropertyOp46
 70
     1
102
RTVSPropertyOp47
 70
     1
102
RTVSPropertyOp48
 70
     1
102
RTVSPropertyOp49
 70
     1
102
RTVSPropertyOp50
 70
     1
102
RTVSPropertyOp51
 70
     0
102
RTVSPropertyOp52
 70
     0
102
RTVSPropertyOp53
 70
     1
102
RTVSPropertyOp54
 70
     1
102
RTVSPropertyOp55
 70
     1
102
RTVSPropertyOp56
 70
     1
102
RTVSPropertyOp57
 70
     1
102
RTVSPost2010Prop28
280
     0
102
RTVSPost2010PropOp28
 70
     1
102
RTVSPost2010Prop29
280
     1
102
RTVSPost2010PropOp29
 70
     1
102
RTVSPost2010Prop30
280
     1
102
RTVSPost2010PropOp30
 70
     1
102
RTVSPost2010Prop31
280
     0
102
RTVSPost2010PropOp31
 70
     1
102
RTVSPost2010Prop32
280
     0
102
RTVSPost2010PropOp32
 70
     1
102
RTVSPost2010Prop33
280
     0
102
RTVSPost2010PropOp33
 70
     1
102
RTVSPost2010Prop34
280
     0
102
RTVSPost2010PropOp34
 70
     1
102
RTVSPost2010Prop35
280
     0
102
RTVSPost2010PropOp35
 70
     1
102
RTVSPost2010Prop36
280
     0
102
RTVSPost2010PropOp36
 70
     1
102
RTVSPost2010Prop37
 90
       50
102
RTVSPost2010PropOp37
 70
     1
102
RTVSPost2010Prop38
140
0.0
102
RTVSPost2010PropOp38
 70
     1
102
RTVSPost2010Prop39
140
1.0
102
RTVSPost2010PropOp39
 70
     1
102
RTVSPost2010Prop40
 90
        0
102
RTVSPost2010PropOp40
 70
     1
102
RTVSPost2010Prop41ColorIndex
 90
       18
102
RTVSPost2010Prop41ColorRGB
 90
        0
102
RTVSPost2010PropOp41
 70
     1
102
RTVSPost2010Prop42
 90
       50
102
RTVSPost2010PropOp42
 70
     1
102
RTVSPost2010Prop43
 90
        3
102
RTVSPost2010PropOp43
 70
     1
102
RTVSPost2010Prop44ColorIndex
 90
        5
102
RTVSPost2010Prop44ColorRGB
 90
      255
102
RTVSPost2010PropOp44
 70
     1
102
RTVSPost2010Prop45
280
     0
102
RTVSPost2010PropOp45
 70
     1
102
RTVSPost2010Prop46
 90
       50
102
RTVSPost2010PropOp46
 70
     1
102
RTVSPost2010Prop47
 90
       50
102
RTVSPost2010PropOp47
 70
     1
102
RTVSPost2010Prop48
 90
       50
102
RTVSPost2010PropOp48
 70
     1
102
RTVSPost2010Prop49
280
     0
102
RTVSPost2010PropOp49
 70
     1
102
RTVSPost2010Prop50
 90
       50
102
RTVSPost2010PropOp50
 70
     1
102
RTVSPost2010Prop51ColorIndex
 90
      256
102
RTVSPost2010Prop51ColorRGB
 90
-16777216
102
RTVSPost2010PropOp51
 70
     0
102
RTVSPost2010Prop52
140
1.0
102
RTVSPost2010PropOp52
 70
     0
102
RTVSPost2010Prop53
 90
        2
102
RTVSPost2010PropOp53
 70
     1
102
RTVSPost2010Prop54
  1
strokes_ogs.tif
102
RTVSPost2010PropOp54
 70
     1
102
RTVSPost2010Prop55
280
     0
102
RTVSPost2010PropOp55
 70
     1
102
RTVSPost2010Prop56
140
1.0
102
RTVSPost2010PropOp56
 70
     1
102
RTVSPost2010Prop57
140
1.0
102
RTVSPost2010PropOp57
 70
     1
  0
XRECORD
  5
2BA
102
{ACAD_REACTORS
330
2B9
102
}
330
2B9
100
AcDbXrecord
280
     1
102
RTVSPropertyOp0
 70
     1
102
RTVSPropertyOp1
 70
     1
102
RTVSPropertyOp2
 70
     1
102
RTVSPropertyOp3
 70
     1
102
RTVSPropertyOp4
 70
     1
102
RTVSPropertyOp5
 70
     1
102
RTVSPropertyOp6
 70
     1
102
RTVSPropertyOp7
 70
     1
102
RTVSPropertyOp8
 70
     1
102
RTVSPropertyOp9
 70
     1
102
RTVSPropertyOp10
 70
     1
102
RTVSPropertyOp11
 70
     1
102
RTVSPropertyOp12
 70
     1
102
RTVSPropertyOp13
 70
     1
102
RTVSPropertyOp14
 70
     1
102
RTVSPropertyOp15
 70
     1
102
RTVSPropertyOp16
 70
     1
102
RTVSPropertyOp17
 70
     1
102
RTVSPropertyOp18
 70
     1
102
RTVSPropertyOp19
 70
     1
102
RTVSPropertyOp20
 70
     1
102
RTVSPropertyOp21
 70
     1
102
RTVSPropertyOp22
 70
     1
102
RTVSPropertyOp23
 70
     1
102
RTVSPropertyOp24
 70
     1
102
RTVSPropertyOp25
 70
     1
102
RTVSPropertyOp26
 70
     1
102
RTVSPropertyOp27
 70
     1
102
RTVSPropertyOp28
 70
     1
102
RTVSPropertyOp29
 70
     1
102
RTVSPropertyOp30
 70
     1
102
RTVSPropertyOp31
 70
     1
102
RTVSPropertyOp32
 70
     1
102
RTVSPropertyOp33
 70
     1
102
RTVSPropertyOp34
 70
     1
102
RTVSPropertyOp35
 70
     1
102
RTVSPropertyOp36
 70
     1
102
RTVSPropertyOp37
 70
     1
102
RTVSPropertyOp38
 70
     1
102
RTVSPropertyOp39
 70
     1
102
RTVSPropertyOp40
 70
     1
102
RTVSPropertyOp41
 70
     1
102
RTVSPropertyOp42
 70
     1
102
RTVSPropertyOp43
 70
     1
102
RTVSPropertyOp44
 70
     1
102
RTVSPropertyOp45
 70
     1
102
RTVSPropertyOp46
 70
     1
102
RTVSPropertyOp47
 70
     1
102
RTVSPropertyOp48
 70
     1
102
RTVSPropertyOp49
 70
     1
102
RTVSPropertyOp50
 70
     1
102
RTVSPropertyOp51
 70
     0
102
RTVSPropertyOp52
 70
     0
102
RTVSPropertyOp53
 70
     1
102
RTVSPropertyOp54
 70
     1
102
RTVSPropertyOp55
 70
     1
102
RTVSPropertyOp56
 70
     1
102
RTVSPropertyOp57
 70
     1
102
RTVSPost2010Prop28
280
     0
102
RTVSPost2010PropOp28
 70
     1
102
RTVSPost2010Prop29
280
     1
102
RTVSPost2010PropOp29
 70
     1
102
RTVSPost2010Prop30
280
     1
102
RTVSPost2010PropOp30
 70
     1
102
RTVSPost2010Prop31
280
     0
102
RTVSPost2010PropOp31
 70
     1
102
RTVSPost2010Prop32
280
     0
102
RTVSPost2010PropOp32
 70
     1
102
RTVSPost2010Prop33
280
     0
102
RTVSPost2010PropOp33
 70
     1
102
RTVSPost2010Prop34
280
     0
102
RTVSPost2010PropOp34
 70
     1
102
RTVSPost2010Prop35
280
     0
102
RTVSPost2010PropOp35
 70
     1
102
RTVSPost2010Prop36
280
     0
102
RTVSPost2010PropOp36
 70
     1
102
RTVSPost2010Prop37
 90
       50
102
RTVSPost2010PropOp37
 70
     1
102
RTVSPost2010Prop38
140
0.0
102
RTVSPost2010PropOp38
 70
     1
102
RTVSPost2010Prop39
140
1.0
102
RTVSPost2010PropOp39
 70
     1
102
RTVSPost2010Prop40
 90
        0
102
RTVSPost2010PropOp40
 70
     1
102
RTVSPost2010Prop41ColorIndex
 90
       18
102
RTVSPost2010Prop41ColorRGB
 90
        0
102
RTVSPost2010PropOp41
 70
     1
102
RTVSPost2010Prop42
 90
       50
102
RTVSPost2010PropOp42
 70
     1
102
RTVSPost2010Prop43
 90
        3
102
RTVSPost2010PropOp43
 70
     1
102
RTVSPost2010Prop44ColorIndex
 90
        5
102
RTVSPost2010Prop44ColorRGB
 90
      255
102
RTVSPost2010PropOp44
 70
     1
102
RTVSPost2010Prop45
280
     0
102
RTVSPost2010PropOp45
 70
     1
102
RTVSPost2010Prop46
 90
       50
102
RTVSPost2010PropOp46
 70
     1
102
RTVSPost2010Prop47
 90
       50
102
RTVSPost2010PropOp47
 70
     1
102
RTVSPost2010Prop48
 90
       50
102
RTVSPost2010PropOp48
 70
     1
102
RTVSPost2010Prop49
280
     0
102
RTVSPost2010PropOp49
 70
     1
102
RTVSPost2010Prop50
 90
       50
102
RTVSPost2010PropOp50
 70
     1
102
RTVSPost2010Prop51ColorIndex
 90
      256
102
RTVSPost2010Prop51ColorRGB
 90
-16777216
102
RTVSPost2010PropOp51
 70
     0
102
RTVSPost2010Prop52
140
1.0
102
RTVSPost2010PropOp52
 70
     0
102
RTVSPost2010Prop53
 90
        2
102
RTVSPost2010PropOp53
 70
     1
102
RTVSPost2010Prop54
  1
strokes_ogs.tif
102
RTVSPost2010PropOp54
 70
     1
102
RTVSPost2010Prop55
280
     0
102
RTVSPost2010PropOp55
 70
     1
102
RTVSPost2010Prop56
140
1.0
102
RTVSPost2010PropOp56
 70
     1
102
RTVSPost2010Prop57
140
1.0
102
RTVSPost2010PropOp57
 70
     1
  0
XRECORD
  5
2BC
102
{ACAD_REACTORS
330
2BB
102
}
330
2BB
100
AcDbXrecord
280
     1
102
RTVSPropertyOp0
 70
     1
102
RTVSPropertyOp1
 70
     1
102
RTVSPropertyOp2
 70
     1
102
RTVSPropertyOp3
 70
     1
102
RTVSPropertyOp4
 70
     1
102
RTVSPropertyOp5
 70
     1
102
RTVSPropertyOp6
 70
     1
102
RTVSPropertyOp7
 70
     1
102
RTVSPropertyOp8
 70
     1
102
RTVSPropertyOp9
 70
     1
102
RTVSPropertyOp10
 70
     1
102
RTVSPropertyOp11
 70
     1
102
RTVSPropertyOp12
 70
     1
102
RTVSPropertyOp13
 70
     1
102
RTVSPropertyOp14
 70
     1
102
RTVSPropertyOp15
 70
     1
102
RTVSPropertyOp16
 70
     1
102
RTVSPropertyOp17
 70
     1
102
RTVSPropertyOp18
 70
     1
102
RTVSPropertyOp19
 70
     1
102
RTVSPropertyOp20
 70
     1
102
RTVSPropertyOp21
 70
     1
102
RTVSPropertyOp22
 70
     1
102
RTVSPropertyOp23
 70
     1
102
RTVSPropertyOp24
 70
     1
102
RTVSPropertyOp25
 70
     1
102
RTVSPropertyOp26
 70
     1
102
RTVSPropertyOp27
 70
     1
102
RTVSPropertyOp28
 70
     1
102
RTVSPropertyOp29
 70
     1
102
RTVSPropertyOp30
 70
     1
102
RTVSPropertyOp31
 70
     1
102
RTVSPropertyOp32
 70
     1
102
RTVSPropertyOp33
 70
     1
102
RTVSPropertyOp34
 70
     1
102
RTVSPropertyOp35
 70
     1
102
RTVSPropertyOp36
 70
     1
102
RTVSPropertyOp37
 70
     1
102
RTVSPropertyOp38
 70
     1
102
RTVSPropertyOp39
 70
     1
102
RTVSPropertyOp40
 70
     1
102
RTVSPropertyOp41
 70
     1
102
RTVSPropertyOp42
 70
     1
102
RTVSPropertyOp43
 70
     1
102
RTVSPropertyOp44
 70
     1
102
RTVSPropertyOp45
 70
     1
102
RTVSPropertyOp46
 70
     1
102
RTVSPropertyOp47
 70
     1
102
RTVSPropertyOp48
 70
     1
102
RTVSPropertyOp49
 70
     1
102
RTVSPropertyOp50
 70
     1
102
RTVSPropertyOp51
 70
     0
102
RTVSPropertyOp52
 70
     0
102
RTVSPropertyOp53
 70
     1
102
RTVSPropertyOp54
 70
     1
102
RTVSPropertyOp55
 70
     1
102
RTVSPropertyOp56
 70
     1
102
RTVSPropertyOp57
 70
     1
102
RTVSPost2010Prop28
280
     0
102
RTVSPost2010PropOp28
 70
     1
102
RTVSPost2010Prop29
280
     1
102
RTVSPost2010PropOp29
 70
     1
102
RTVSPost2010Prop30
280
     1
102
RTVSPost2010PropOp30
 70
     1
102
RTVSPost2010Prop31
280
     0
102
RTVSPost2010PropOp31
 70
     1
102
RTVSPost2010Prop32
280
     0
102
RTVSPost2010PropOp32
 70
     1
102
RTVSPost2010Prop33
280
     0
102
RTVSPost2010PropOp33
 70
     1
102
RTVSPost2010Prop34
280
     0
102
RTVSPost2010PropOp34
 70
     1
102
RTVSPost2010Prop35
280
     0
102
RTVSPost2010PropOp35
 70
     1
102
RTVSPost2010Prop36
280
     0
102
RTVSPost2010PropOp36
 70
     1
102
RTVSPost2010Prop37
 90
       50
102
RTVSPost2010PropOp37
 70
     1
102
RTVSPost2010Prop38
140
0.0
102
RTVSPost2010PropOp38
 70
     1
102
RTVSPost2010Prop39
140
1.0
102
RTVSPost2010PropOp39
 70
     1
102
RTVSPost2010Prop40
 90
        0
102
RTVSPost2010PropOp40
 70
     1
102
RTVSPost2010Prop41ColorIndex
 90
       18
102
RTVSPost2010Prop41ColorRGB
 90
        0
102
RTVSPost2010PropOp41
 70
     1
102
RTVSPost2010Prop42
 90
       50
102
RTVSPost2010PropOp42
 70
     1
102
RTVSPost2010Prop43
 90
        3
102
RTVSPost2010PropOp43
 70
     1
102
RTVSPost2010Prop44ColorIndex
 90
        5
102
RTVSPost2010Prop44ColorRGB
 90
      255
102
RTVSPost2010PropOp44
 70
     1
102
RTVSPost2010Prop45
280
     0
102
RTVSPost2010PropOp45
 70
     1
102
RTVSPost2010Prop46
 90
       50
102
RTVSPost2010PropOp46
 70
     1
102
RTVSPost2010Prop47
 90
       50
102
RTVSPost2010PropOp47
 70
     1
102
RTVSPost2010Prop48
 90
       50
102
RTVSPost2010PropOp48
 70
     1
102
RTVSPost2010Prop49
280
     0
102
RTVSPost2010PropOp49
 70
     1
102
RTVSPost2010Prop50
 90
       50
102
RTVSPost2010PropOp50
 70
     1
102
RTVSPost2010Prop51ColorIndex
 90
      256
102
RTVSPost2010Prop51ColorRGB
 90
-16777216
102
RTVSPost2010PropOp51
 70
     0
102
RTVSPost2010Prop52
140
1.0
102
RTVSPost2010PropOp52
 70
     0
102
RTVSPost2010Prop53
 90
        2
102
RTVSPost2010PropOp53
 70
     1
102
RTVSPost2010Prop54
  1
strokes_ogs.tif
102
RTVSPost2010PropOp54
 70
     1
102
RTVSPost2010Prop55
280
     0
102
RTVSPost2010PropOp55
 70
     1
102
RTVSPost2010Prop56
140
1.0
102
RTVSPost2010PropOp56
 70
     1
102
RTVSPost2010Prop57
140
1.0
102
RTVSPost2010PropOp57
 70
     1
  0
XRECORD
  5
2BE
102
{ACAD_REACTORS
330
2BD
102
}
330
2BD
100
AcDbXrecord
280
     1
102
RTVSPropertyOp0
 70
     1
102
RTVSPropertyOp1
 70
     1
102
RTVSPropertyOp2
 70
     1
102
RTVSPropertyOp3
 70
     1
102
RTVSPropertyOp4
 70
     1
102
RTVSPropertyOp5
 70
     1
102
RTVSPropertyOp6
 70
     1
102
RTVSPropertyOp7
 70
     1
102
RTVSPropertyOp8
 70
     1
102
RTVSPropertyOp9
 70
     1
102
RTVSPropertyOp10
 70
     1
102
RTVSPropertyOp11
 70
     1
102
RTVSPropertyOp12
 70
     1
102
RTVSPropertyOp13
 70
     1
102
RTVSPropertyOp14
 70
     1
102
RTVSPropertyOp15
 70
     1
102
RTVSPropertyOp16
 70
     1
102
RTVSPropertyOp17
 70
     1
102
RTVSPropertyOp18
 70
     1
102
RTVSPropertyOp19
 70
     1
102
RTVSPropertyOp20
 70
     1
102
RTVSPropertyOp21
 70
     1
102
RTVSPropertyOp22
 70
     1
102
RTVSPropertyOp23
 70
     1
102
RTVSPropertyOp24
 70
     1
102
RTVSPropertyOp25
 70
     1
102
RTVSPropertyOp26
 70
     1
102
RTVSPropertyOp27
 70
     1
102
RTVSPropertyOp28
 70
     1
102
RTVSPropertyOp29
 70
     1
102
RTVSPropertyOp30
 70
     1
102
RTVSPropertyOp31
 70
     1
102
RTVSPropertyOp32
 70
     1
102
RTVSPropertyOp33
 70
     1
102
RTVSPropertyOp34
 70
     1
102
RTVSPropertyOp35
 70
     1
102
RTVSPropertyOp36
 70
     1
102
RTVSPropertyOp37
 70
     1
102
RTVSPropertyOp38
 70
     1
102
RTVSPropertyOp39
 70
     1
102
RTVSPropertyOp40
 70
     1
102
RTVSPropertyOp41
 70
     1
102
RTVSPropertyOp42
 70
     1
102
RTVSPropertyOp43
 70
     1
102
RTVSPropertyOp44
 70
     1
102
RTVSPropertyOp45
 70
     1
102
RTVSPropertyOp46
 70
     1
102
RTVSPropertyOp47
 70
     1
102
RTVSPropertyOp48
 70
     1
102
RTVSPropertyOp49
 70
     1
102
RTVSPropertyOp50
 70
     1
102
RTVSPropertyOp51
 70
     0
102
RTVSPropertyOp52
 70
     0
102
RTVSPropertyOp53
 70
     1
102
RTVSPropertyOp54
 70
     1
102
RTVSPropertyOp55
 70
     1
102
RTVSPropertyOp56
 70
     1
102
RTVSPropertyOp57
 70
     1
102
RTVSPost2010Prop28
280
     0
102
RTVSPost2010PropOp28
 70
     1
102
RTVSPost2010Prop29
280
     1
102
RTVSPost2010PropOp29
 70
     1
102
RTVSPost2010Prop30
280
     1
102
RTVSPost2010PropOp30
 70
     1
102
RTVSPost2010Prop31
280
     0
102
RTVSPost2010PropOp31
 70
     1
102
RTVSPost2010Prop32
280
     0
102
RTVSPost2010PropOp32
 70
     1
102
RTVSPost2010Prop33
280
     0
102
RTVSPost2010PropOp33
 70
     1
102
RTVSPost2010Prop34
280
     0
102
RTVSPost2010PropOp34
 70
     1
102
RTVSPost2010Prop35
280
     0
102
RTVSPost2010PropOp35
 70
     1
102
RTVSPost2010Prop36
280
     0
102
RTVSPost2010PropOp36
 70
     1
102
RTVSPost2010Prop37
 90
       50
102
RTVSPost2010PropOp37
 70
     1
102
RTVSPost2010Prop38
140
0.0
102
RTVSPost2010PropOp38
 70
     1
102
RTVSPost2010Prop39
140
1.0
102
RTVSPost2010PropOp39
 70
     1
102
RTVSPost2010Prop40
 90
        0
102
RTVSPost2010PropOp40
 70
     1
102
RTVSPost2010Prop41ColorIndex
 90
       18
102
RTVSPost2010Prop41ColorRGB
 90
        0
102
RTVSPost2010PropOp41
 70
     1
102
RTVSPost2010Prop42
 90
       50
102
RTVSPost2010PropOp42
 70
     1
102
RTVSPost2010Prop43
 90
        3
102
RTVSPost2010PropOp43
 70
     1
102
RTVSPost2010Prop44ColorIndex
 90
        5
102
RTVSPost2010Prop44ColorRGB
 90
      255
102
RTVSPost2010PropOp44
 70
     1
102
RTVSPost2010Prop45
280
     0
102
RTVSPost2010PropOp45
 70
     1
102
RTVSPost2010Prop46
 90
       50
102
RTVSPost2010PropOp46
 70
     1
102
RTVSPost2010Prop47
 90
       50
102
RTVSPost2010PropOp47
 70
     1
102
RTVSPost2010Prop48
 90
       50
102
RTVSPost2010PropOp48
 70
     1
102
RTVSPost2010Prop49
280
     0
102
RTVSPost2010PropOp49
 70
     1
102
RTVSPost2010Prop50
 90
       50
102
RTVSPost2010PropOp50
 70
     1
102
RTVSPost2010Prop51ColorIndex
 90
      256
102
RTVSPost2010Prop51ColorRGB
 90
-16777216
102
RTVSPost2010PropOp51
 70
     0
102
RTVSPost2010Prop52
140
1.0
102
RTVSPost2010PropOp52
 70
     0
102
RTVSPost2010Prop53
 90
        2
102
RTVSPost2010PropOp53
 70
     1
102
RTVSPost2010Prop54
  1
strokes_ogs.tif
102
RTVSPost2010PropOp54
 70
     1
102
RTVSPost2010Prop55
280
     0
102
RTVSPost2010PropOp55
 70
     1
102
RTVSPost2010Prop56
140
1.0
102
RTVSPost2010PropOp56
 70
     1
102
RTVSPost2010Prop57
140
1.0
102
RTVSPost2010PropOp57
 70
     1
  0
XRECORD
  5
2C4
102
{ACAD_REACTORS
330
2C3
102
}
330
2C3
100
AcDbXrecord
280
     1
102
RTVSPropertyOp0
 70
     1
102
RTVSPropertyOp1
 70
     1
102
RTVSPropertyOp2
 70
     1
102
RTVSPropertyOp3
 70
     1
102
RTVSPropertyOp4
 70
     1
102
RTVSPropertyOp5
 70
     1
102
RTVSPropertyOp6
 70
     1
102
RTVSPropertyOp7
 70
     1
102
RTVSPropertyOp8
 70
     1
102
RTVSPropertyOp9
 70
     1
102
RTVSPropertyOp10
 70
     1
102
RTVSPropertyOp11
 70
     1
102
RTVSPropertyOp12
 70
     1
102
RTVSPropertyOp13
 70
     1
102
RTVSPropertyOp14
 70
     1
102
RTVSPropertyOp15
 70
     1
102
RTVSPropertyOp16
 70
     1
102
RTVSPropertyOp17
 70
     1
102
RTVSPropertyOp18
 70
     1
102
RTVSPropertyOp19
 70
     1
102
RTVSPropertyOp20
 70
     1
102
RTVSPropertyOp21
 70
     1
102
RTVSPropertyOp22
 70
     1
102
RTVSPropertyOp23
 70
     1
102
RTVSPropertyOp24
 70
     1
102
RTVSPropertyOp25
 70
     1
102
RTVSPropertyOp26
 70
     1
102
RTVSPropertyOp27
 70
     1
102
RTVSPropertyOp28
 70
     1
102
RTVSPropertyOp29
 70
     1
102
RTVSPropertyOp30
 70
     1
102
RTVSPropertyOp31
 70
     1
102
RTVSPropertyOp32
 70
     1
102
RTVSPropertyOp33
 70
     1
102
RTVSPropertyOp34
 70
     1
102
RTVSPropertyOp35
 70
     1
102
RTVSPropertyOp36
 70
     1
102
RTVSPropertyOp37
 70
     1
102
RTVSPropertyOp38
 70
     1
102
RTVSPropertyOp39
 70
     1
102
RTVSPropertyOp40
 70
     1
102
RTVSPropertyOp41
 70
     1
102
RTVSPropertyOp42
 70
     1
102
RTVSPropertyOp43
 70
     1
102
RTVSPropertyOp44
 70
     1
102
RTVSPropertyOp45
 70
     1
102
RTVSPropertyOp46
 70
     1
102
RTVSPropertyOp47
 70
     1
102
RTVSPropertyOp48
 70
     1
102
RTVSPropertyOp49
 70
     1
102
RTVSPropertyOp50
 70
     1
102
RTVSPropertyOp51
 70
     0
102
RTVSPropertyOp52
 70
     0
102
RTVSPropertyOp53
 70
     1
102
RTVSPropertyOp54
 70
     1
102
RTVSPropertyOp55
 70
     1
102
RTVSPropertyOp56
 70
     1
102
RTVSPropertyOp57
 70
     1
102
RTVSPost2010Prop28
280
     0
102
RTVSPost2010PropOp28
 70
     1
102
RTVSPost2010Prop29
280
     1
102
RTVSPost2010PropOp29
 70
     1
102
RTVSPost2010Prop30
280
     1
102
RTVSPost2010PropOp30
 70
     1
102
RTVSPost2010Prop31
280
     0
102
RTVSPost2010PropOp31
 70
     1
102
RTVSPost2010Prop32
280
     0
102
RTVSPost2010PropOp32
 70
     1
102
RTVSPost2010Prop33
280
     0
102
RTVSPost2010PropOp33
 70
     1
102
RTVSPost2010Prop34
280
     0
102
RTVSPost2010PropOp34
 70
     1
102
RTVSPost2010Prop35
280
     0
102
RTVSPost2010PropOp35
 70
     1
102
RTVSPost2010Prop36
280
     0
102
RTVSPost2010PropOp36
 70
     1
102
RTVSPost2010Prop37
 90
       50
102
RTVSPost2010PropOp37
 70
     1
102
RTVSPost2010Prop38
140
0.0
102
RTVSPost2010PropOp38
 70
     1
102
RTVSPost2010Prop39
140
1.0
102
RTVSPost2010PropOp39
 70
     1
102
RTVSPost2010Prop40
 90
        0
102
RTVSPost2010PropOp40
 70
     1
102
RTVSPost2010Prop41ColorIndex
 90
       18
102
RTVSPost2010Prop41ColorRGB
 90
        0
102
RTVSPost2010PropOp41
 70
     1
102
RTVSPost2010Prop42
 90
       50
102
RTVSPost2010PropOp42
 70
     1
102
RTVSPost2010Prop43
 90
        3
102
RTVSPost2010PropOp43
 70
     1
102
RTVSPost2010Prop44ColorIndex
 90
        5
102
RTVSPost2010Prop44ColorRGB
 90
      255
102
RTVSPost2010PropOp44
 70
     1
102
RTVSPost2010Prop45
280
     0
102
RTVSPost2010PropOp45
 70
     1
102
RTVSPost2010Prop46
 90
       50
102
RTVSPost2010PropOp46
 70
     1
102
RTVSPost2010Prop47
 90
       50
102
RTVSPost2010PropOp47
 70
     1
102
RTVSPost2010Prop48
 90
       50
102
RTVSPost2010PropOp48
 70
     1
102
RTVSPost2010Prop49
280
     0
102
RTVSPost2010PropOp49
 70
     1
102
RTVSPost2010Prop50
 90
       50
102
RTVSPost2010PropOp50
 70
     1
102
RTVSPost2010Prop51ColorIndex
 90
      256
102
RTVSPost2010Prop51ColorRGB
 90
-16777216
102
RTVSPost2010PropOp51
 70
     0
102
RTVSPost2010Prop52
140
1.0
102
RTVSPost2010PropOp52
 70
     0
102
RTVSPost2010Prop53
 90
        2
102
RTVSPost2010PropOp53
 70
     1
102
RTVSPost2010Prop54
  1
strokes_ogs.tif
102
RTVSPost2010PropOp54
 70
     1
102
RTVSPost2010Prop55
280
     0
102
RTVSPost2010PropOp55
 70
     1
102
RTVSPost2010Prop56
140
1.0
102
RTVSPost2010PropOp56
 70
     1
102
RTVSPost2010Prop57
140
1.0
102
RTVSPost2010PropOp57
 70
     1
  0
XRECORD
  5
2D8
102
{ACAD_REACTORS
330
2D7
102
}
330
2D7
100
AcDbXrecord
280
     1
102
RTVSPropertyOp0
 70
     0
102
RTVSPropertyOp1
 70
     0
102
RTVSPropertyOp2
 70
     0
102
RTVSPropertyOp3
 70
     0
102
RTVSPropertyOp4
 70
     0
102
RTVSPropertyOp5
 70
     0
102
RTVSPropertyOp6
 70
     0
102
RTVSPropertyOp7
 70
     0
102
RTVSPropertyOp8
 70
     0
102
RTVSPropertyOp9
 70
     0
102
RTVSPropertyOp10
 70
     0
102
RTVSPropertyOp11
 70
     0
102
RTVSPropertyOp12
 70
     0
102
RTVSPropertyOp13
 70
     0
102
RTVSPropertyOp14
 70
     2
102
RTVSPropertyOp15
 70
     0
102
RTVSPropertyOp16
 70
     0
102
RTVSPropertyOp17
 70
     0
102
RTVSPropertyOp18
 70
     0
102
RTVSPropertyOp19
 70
     0
102
RTVSPropertyOp20
 70
     0
102
RTVSPropertyOp21
 70
     0
102
RTVSPropertyOp22
 70
     0
102
RTVSPropertyOp23
 70
     0
102
RTVSPropertyOp24
 70
     0
102
RTVSPropertyOp25
 70
     0
102
RTVSPropertyOp26
 70
     0
102
RTVSPropertyOp27
 70
     0
102
RTVSPropertyOp28
 70
     0
102
RTVSPropertyOp29
 70
     0
102
RTVSPropertyOp30
 70
     0
102
RTVSPropertyOp31
 70
     0
102
RTVSPropertyOp32
 70
     0
102
RTVSPropertyOp33
 70
     0
102
RTVSPropertyOp34
 70
     0
102
RTVSPropertyOp35
 70
     0
102
RTVSPropertyOp36
 70
     0
102
RTVSPropertyOp37
 70
     0
102
RTVSPropertyOp38
 70
     0
102
RTVSPropertyOp39
 70
     0
102
RTVSPropertyOp40
 70
     0
102
RTVSPropertyOp41
 70
     0
102
RTVSPropertyOp42
 70
     0
102
RTVSPropertyOp43
 70
     0
102
RTVSPropertyOp44
 70
     0
102
RTVSPropertyOp45
 70
     0
102
RTVSPropertyOp46
 70
     0
102
RTVSPropertyOp47
 70
     0
102
RTVSPropertyOp48
 70
     0
102
RTVSPropertyOp49
 70
     0
102
RTVSPropertyOp50
 70
     0
102
RTVSPropertyOp51
 70
     0
102
RTVSPropertyOp52
 70
     0
102
RTVSPropertyOp53
 70
     0
102
RTVSPropertyOp54
 70
     0
102
RTVSPropertyOp55
 70
     0
102
RTVSPropertyOp56
 70
     0
102
RTVSPropertyOp57
 70
     0
102
RTVSPost2010Prop28
280
     0
102
RTVSPost2010PropOp28
 70
     0
102
RTVSPost2010Prop29
280
     1
102
RTVSPost2010PropOp29
 70
     0
102
RTVSPost2010Prop30
280
     1
102
RTVSPost2010PropOp30
 70
     0
102
RTVSPost2010Prop31
280
     0
102
RTVSPost2010PropOp31
 70
     0
102
RTVSPost2010Prop32
280
     0
102
RTVSPost2010PropOp32
 70
     0
102
RTVSPost2010Prop33
280
     0
102
RTVSPost2010PropOp33
 70
     0
102
RTVSPost2010Prop34
280
     0
102
RTVSPost2010PropOp34
 70
     0
102
RTVSPost2010Prop35
280
     0
102
RTVSPost2010PropOp35
 70
     0
102
RTVSPost2010Prop36
280
     0
102
RTVSPost2010PropOp36
 70
     0
102
RTVSPost2010Prop37
 90
       50
102
RTVSPost2010PropOp37
 70
     0
102
RTVSPost2010Prop38
140
0.0
102
RTVSPost2010PropOp38
 70
     0
102
RTVSPost2010Prop39
140
1.0
102
RTVSPost2010PropOp39
 70
     0
102
RTVSPost2010Prop40
 90
        0
102
RTVSPost2010PropOp40
 70
     0
102
RTVSPost2010Prop41ColorIndex
 90
       18
102
RTVSPost2010Prop41ColorRGB
 90
        0
102
RTVSPost2010PropOp41
 70
     0
102
RTVSPost2010Prop42
 90
       50
102
RTVSPost2010PropOp42
 70
     0
102
RTVSPost2010Prop43
 90
        3
102
RTVSPost2010PropOp43
 70
     0
102
RTVSPost2010Prop44ColorIndex
 90
        5
102
RTVSPost2010Prop44ColorRGB
 90
      255
102
RTVSPost2010PropOp44
 70
     0
102
RTVSPost2010Prop45
280
     0
102
RTVSPost2010PropOp45
 70
     0
102
RTVSPost2010Prop46
 90
       50
102
RTVSPost2010PropOp46
 70
     0
102
RTVSPost2010Prop47
 90
       50
102
RTVSPost2010PropOp47
 70
     0
102
RTVSPost2010Prop48
 90
       50
102
RTVSPost2010PropOp48
 70
     0
102
RTVSPost2010Prop49
280
     0
102
RTVSPost2010PropOp49
 70
     0
102
RTVSPost2010Prop50
 90
       50
102
RTVSPost2010PropOp50
 70
     0
102
RTVSPost2010Prop51ColorIndex
 90
      256
102
RTVSPost2010Prop51ColorRGB
 90
-16777216
102
RTVSPost2010PropOp51
 70
     0
102
RTVSPost2010Prop52
140
1.0
102
RTVSPost2010PropOp52
 70
     0
102
RTVSPost2010Prop53
 90
        2
102
RTVSPost2010PropOp53
 70
     0
102
RTVSPost2010Prop54
  1
strokes_ogs.tif
102
RTVSPost2010PropOp54
 70
     0
102
RTVSPost2010Prop55
280
     0
102
RTVSPost2010PropOp55
 70
     0
102
RTVSPost2010Prop56
140
1.0
102
RTVSPost2010PropOp56
 70
     0
102
RTVSPost2010Prop57
140
1.0
102
RTVSPost2010PropOp57
 70
     0
  0
XRECORD
  5
2D2
102
{ACAD_REACTORS
330
2D1
102
}
330
2D1
100
AcDbXrecord
280
     1
102
RTVSPropertyOp0
 70
     1
102
RTVSPropertyOp1
 70
     1
102
RTVSPropertyOp2
 70
     1
102
RTVSPropertyOp3
 70
     1
102
RTVSPropertyOp4
 70
     1
102
RTVSPropertyOp5
 70
     1
102
RTVSPropertyOp6
 70
     1
102
RTVSPropertyOp7
 70
     1
102
RTVSPropertyOp8
 70
     1
102
RTVSPropertyOp9
 70
     1
102
RTVSPropertyOp10
 70
     1
102
RTVSPropertyOp11
 70
     1
102
RTVSPropertyOp12
 70
     1
102
RTVSPropertyOp13
 70
     1
102
RTVSPropertyOp14
 70
     1
102
RTVSPropertyOp15
 70
     1
102
RTVSPropertyOp16
 70
     1
102
RTVSPropertyOp17
 70
     1
102
RTVSPropertyOp18
 70
     1
102
RTVSPropertyOp19
 70
     1
102
RTVSPropertyOp20
 70
     1
102
RTVSPropertyOp21
 70
     1
102
RTVSPropertyOp22
 70
     1
102
RTVSPropertyOp23
 70
     1
102
RTVSPropertyOp24
 70
     1
102
RTVSPropertyOp25
 70
     1
102
RTVSPropertyOp26
 70
     1
102
RTVSPropertyOp27
 70
     1
102
RTVSPropertyOp28
 70
     1
102
RTVSPropertyOp29
 70
     1
102
RTVSPropertyOp30
 70
     1
102
RTVSPropertyOp31
 70
     1
102
RTVSPropertyOp32
 70
     1
102
RTVSPropertyOp33
 70
     1
102
RTVSPropertyOp34
 70
     1
102
RTVSPropertyOp35
 70
     1
102
RTVSPropertyOp36
 70
     1
102
RTVSPropertyOp37
 70
     1
102
RTVSPropertyOp38
 70
     1
102
RTVSPropertyOp39
 70
     1
102
RTVSPropertyOp40
 70
     1
102
RTVSPropertyOp41
 70
     1
102
RTVSPropertyOp42
 70
     1
102
RTVSPropertyOp43
 70
     1
102
RTVSPropertyOp44
 70
     1
102
RTVSPropertyOp45
 70
     1
102
RTVSPropertyOp46
 70
     1
102
RTVSPropertyOp47
 70
     1
102
RTVSPropertyOp48
 70
     1
102
RTVSPropertyOp49
 70
     1
102
RTVSPropertyOp50
 70
     1
102
RTVSPropertyOp51
 70
     0
102
RTVSPropertyOp52
 70
     0
102
RTVSPropertyOp53
 70
     1
102
RTVSPropertyOp54
 70
     1
102
RTVSPropertyOp55
 70
     1
102
RTVSPropertyOp56
 70
     1
102
RTVSPropertyOp57
 70
     1
102
RTVSPost2010Prop28
280
     0
102
RTVSPost2010PropOp28
 70
     1
102
RTVSPost2010Prop29
280
     1
102
RTVSPost2010PropOp29
 70
     1
102
RTVSPost2010Prop30
280
     1
102
RTVSPost2010PropOp30
 70
     1
102
RTVSPost2010Prop31
280
     0
102
RTVSPost2010PropOp31
 70
     1
102
RTVSPost2010Prop32
280
     0
102
RTVSPost2010PropOp32
 70
     1
102
RTVSPost2010Prop33
280
     0
102
RTVSPost2010PropOp33
 70
     1
102
RTVSPost2010Prop34
280
     0
102
RTVSPost2010PropOp34
 70
     1
102
RTVSPost2010Prop35
280
     0
102
RTVSPost2010PropOp35
 70
     1
102
RTVSPost2010Prop36
280
     0
102
RTVSPost2010PropOp36
 70
     1
102
RTVSPost2010Prop37
 90
       50
102
RTVSPost2010PropOp37
 70
     1
102
RTVSPost2010Prop38
140
0.0
102
RTVSPost2010PropOp38
 70
     1
102
RTVSPost2010Prop39
140
1.0
102
RTVSPost2010PropOp39
 70
     1
102
RTVSPost2010Prop40
 90
        0
102
RTVSPost2010PropOp40
 70
     1
102
RTVSPost2010Prop41ColorIndex
 90
       18
102
RTVSPost2010Prop41ColorRGB
 90
        0
102
RTVSPost2010PropOp41
 70
     1
102
RTVSPost2010Prop42
 90
       50
102
RTVSPost2010PropOp42
 70
     1
102
RTVSPost2010Prop43
 90
        3
102
RTVSPost2010PropOp43
 70
     1
102
RTVSPost2010Prop44ColorIndex
 90
        5
102
RTVSPost2010Prop44ColorRGB
 90
      255
102
RTVSPost2010PropOp44
 70
     1
102
RTVSPost2010Prop45
280
     0
102
RTVSPost2010PropOp45
 70
     1
102
RTVSPost2010Prop46
 90
       50
102
RTVSPost2010PropOp46
 70
     1
102
RTVSPost2010Prop47
 90
       50
102
RTVSPost2010PropOp47
 70
     1
102
RTVSPost2010Prop48
 90
       50
102
RTVSPost2010PropOp48
 70
     1
102
RTVSPost2010Prop49
280
     0
102
RTVSPost2010PropOp49
 70
     1
102
RTVSPost2010Prop50
 90
       50
102
RTVSPost2010PropOp50
 70
     1
102
RTVSPost2010Prop51ColorIndex
 90
      256
102
RTVSPost2010Prop51ColorRGB
 90
-16777216
102
RTVSPost2010PropOp51
 70
     0
102
RTVSPost2010Prop52
140
1.0
102
RTVSPost2010PropOp52
 70
     0
102
RTVSPost2010Prop53
 90
        2
102
RTVSPost2010PropOp53
 70
     1
102
RTVSPost2010Prop54
  1
strokes_ogs.tif
102
RTVSPost2010PropOp54
 70
     1
102
RTVSPost2010Prop55
280
     0
102
RTVSPost2010PropOp55
 70
     1
102
RTVSPost2010Prop56
140
1.0
102
RTVSPost2010PropOp56
 70
     1
102
RTVSPost2010Prop57
140
1.0
102
RTVSPost2010PropOp57
 70
     1
  0
XRECORD
  5
2DA
102
{ACAD_REACTORS
330
2D9
102
}
330
2D9
100
AcDbXrecord
280
     1
102
RTVSPropertyOp0
 70
     0
102
RTVSPropertyOp1
 70
     0
102
RTVSPropertyOp2
 70
     0
102
RTVSPropertyOp3
 70
     0
102
RTVSPropertyOp4
 70
     0
102
RTVSPropertyOp5
 70
     0
102
RTVSPropertyOp6
 70
     0
102
RTVSPropertyOp7
 70
     0
102
RTVSPropertyOp8
 70
     0
102
RTVSPropertyOp9
 70
     0
102
RTVSPropertyOp10
 70
     0
102
RTVSPropertyOp11
 70
     0
102
RTVSPropertyOp12
 70
     0
102
RTVSPropertyOp13
 70
     0
102
RTVSPropertyOp14
 70
     2
102
RTVSPropertyOp15
 70
     0
102
RTVSPropertyOp16
 70
     0
102
RTVSPropertyOp17
 70
     0
102
RTVSPropertyOp18
 70
     0
102
RTVSPropertyOp19
 70
     0
102
RTVSPropertyOp20
 70
     0
102
RTVSPropertyOp21
 70
     0
102
RTVSPropertyOp22
 70
     0
102
RTVSPropertyOp23
 70
     0
102
RTVSPropertyOp24
 70
     0
102
RTVSPropertyOp25
 70
     0
102
RTVSPropertyOp26
 70
     0
102
RTVSPropertyOp27
 70
     0
102
RTVSPropertyOp28
 70
     0
102
RTVSPropertyOp29
 70
     0
102
RTVSPropertyOp30
 70
     0
102
RTVSPropertyOp31
 70
     0
102
RTVSPropertyOp32
 70
     0
102
RTVSPropertyOp33
 70
     0
102
RTVSPropertyOp34
 70
     0
102
RTVSPropertyOp35
 70
     0
102
RTVSPropertyOp36
 70
     0
102
RTVSPropertyOp37
 70
     0
102
RTVSPropertyOp38
 70
     0
102
RTVSPropertyOp39
 70
     0
102
RTVSPropertyOp40
 70
     0
102
RTVSPropertyOp41
 70
     0
102
RTVSPropertyOp42
 70
     0
102
RTVSPropertyOp43
 70
     0
102
RTVSPropertyOp44
 70
     0
102
RTVSPropertyOp45
 70
     0
102
RTVSPropertyOp46
 70
     0
102
RTVSPropertyOp47
 70
     0
102
RTVSPropertyOp48
 70
     0
102
RTVSPropertyOp49
 70
     0
102
RTVSPropertyOp50
 70
     0
102
RTVSPropertyOp51
 70
     0
102
RTVSPropertyOp52
 70
     0
102
RTVSPropertyOp53
 70
     0
102
RTVSPropertyOp54
 70
     0
102
RTVSPropertyOp55
 70
     0
102
RTVSPropertyOp56
 70
     0
102
RTVSPropertyOp57
 70
     0
102
RTVSPost2010Prop28
280
     0
102
RTVSPost2010PropOp28
 70
     0
102
RTVSPost2010Prop29
280
     1
102
RTVSPost2010PropOp29
 70
     0
102
RTVSPost2010Prop30
280
     1
102
RTVSPost2010PropOp30
 70
     0
102
RTVSPost2010Prop31
280
     0
102
RTVSPost2010PropOp31
 70
     0
102
RTVSPost2010Prop32
280
     0
102
RTVSPost2010PropOp32
 70
     0
102
RTVSPost2010Prop33
280
     0
102
RTVSPost2010PropOp33
 70
     0
102
RTVSPost2010Prop34
280
     0
102
RTVSPost2010PropOp34
 70
     0
102
RTVSPost2010Prop35
280
     0
102
RTVSPost2010PropOp35
 70
     0
102
RTVSPost2010Prop36
280
     0
102
RTVSPost2010PropOp36
 70
     0
102
RTVSPost2010Prop37
 90
       50
102
RTVSPost2010PropOp37
 70
     0
102
RTVSPost2010Prop38
140
0.0
102
RTVSPost2010PropOp38
 70
     0
102
RTVSPost2010Prop39
140
1.0
102
RTVSPost2010PropOp39
 70
     0
102
RTVSPost2010Prop40
 90
        0
102
RTVSPost2010PropOp40
 70
     0
102
RTVSPost2010Prop41ColorIndex
 90
       18
102
RTVSPost2010Prop41ColorRGB
 90
        0
102
RTVSPost2010PropOp41
 70
     0
102
RTVSPost2010Prop42
 90
       50
102
RTVSPost2010PropOp42
 70
     0
102
RTVSPost2010Prop43
 90
        3
102
RTVSPost2010PropOp43
 70
     0
102
RTVSPost2010Prop44ColorIndex
 90
        5
102
RTVSPost2010Prop44ColorRGB
 90
      255
102
RTVSPost2010PropOp44
 70
     0
102
RTVSPost2010Prop45
280
     0
102
RTVSPost2010PropOp45
 70
     0
102
RTVSPost2010Prop46
 90
       50
102
RTVSPost2010PropOp46
 70
     0
102
RTVSPost2010Prop47
 90
       50
102
RTVSPost2010PropOp47
 70
     0
102
RTVSPost2010Prop48
 90
       50
102
RTVSPost2010PropOp48
 70
     0
102
RTVSPost2010Prop49
280
     0
102
RTVSPost2010PropOp49
 70
     0
102
RTVSPost2010Prop50
 90
       50
102
RTVSPost2010PropOp50
 70
     0
102
RTVSPost2010Prop51ColorIndex
 90
      256
102
RTVSPost2010Prop51ColorRGB
 90
-16777216
102
RTVSPost2010PropOp51
 70
     0
102
RTVSPost2010Prop52
140
1.0
102
RTVSPost2010PropOp52
 70
     0
102
RTVSPost2010Prop53
 90
        2
102
RTVSPost2010PropOp53
 70
     0
102
RTVSPost2010Prop54
  1
strokes_ogs.tif
102
RTVSPost2010PropOp54
 70
     0
102
RTVSPost2010Prop55
280
     0
102
RTVSPost2010PropOp55
 70
     0
102
RTVSPost2010Prop56
140
1.0
102
RTVSPost2010PropOp56
 70
     0
102
RTVSPost2010Prop57
140
1.0
102
RTVSPost2010PropOp57
 70
     0
  0
XRECORD
  5
2C8
102
{ACAD_REACTORS
330
2C7
102
}
330
2C7
100
AcDbXrecord
280
     1
102
RTVSPropertyOp0
 70
     1
102
RTVSPropertyOp1
 70
     1
102
RTVSPropertyOp2
 70
     1
102
RTVSPropertyOp3
 70
     1
102
RTVSPropertyOp4
 70
     1
102
RTVSPropertyOp5
 70
     1
102
RTVSPropertyOp6
 70
     1
102
RTVSPropertyOp7
 70
     1
102
RTVSPropertyOp8
 70
     1
102
RTVSPropertyOp9
 70
     1
102
RTVSPropertyOp10
 70
     1
102
RTVSPropertyOp11
 70
     1
102
RTVSPropertyOp12
 70
     1
102
RTVSPropertyOp13
 70
     1
102
RTVSPropertyOp14
 70
     1
102
RTVSPropertyOp15
 70
     1
102
RTVSPropertyOp16
 70
     1
102
RTVSPropertyOp17
 70
     1
102
RTVSPropertyOp18
 70
     1
102
RTVSPropertyOp19
 70
     1
102
RTVSPropertyOp20
 70
     1
102
RTVSPropertyOp21
 70
     1
102
RTVSPropertyOp22
 70
     1
102
RTVSPropertyOp23
 70
     1
102
RTVSPropertyOp24
 70
     1
102
RTVSPropertyOp25
 70
     1
102
RTVSPropertyOp26
 70
     1
102
RTVSPropertyOp27
 70
     1
102
RTVSPropertyOp28
 70
     1
102
RTVSPropertyOp29
 70
     1
102
RTVSPropertyOp30
 70
     1
102
RTVSPropertyOp31
 70
     1
102
RTVSPropertyOp32
 70
     1
102
RTVSPropertyOp33
 70
     1
102
RTVSPropertyOp34
 70
     1
102
RTVSPropertyOp35
 70
     1
102
RTVSPropertyOp36
 70
     1
102
RTVSPropertyOp37
 70
     1
102
RTVSPropertyOp38
 70
     1
102
RTVSPropertyOp39
 70
     1
102
RTVSPropertyOp40
 70
     1
102
RTVSPropertyOp41
 70
     1
102
RTVSPropertyOp42
 70
     1
102
RTVSPropertyOp43
 70
     1
102
RTVSPropertyOp44
 70
     1
102
RTVSPropertyOp45
 70
     1
102
RTVSPropertyOp46
 70
     1
102
RTVSPropertyOp47
 70
     1
102
RTVSPropertyOp48
 70
     1
102
RTVSPropertyOp49
 70
     1
102
RTVSPropertyOp50
 70
     1
102
RTVSPropertyOp51
 70
     0
102
RTVSPropertyOp52
 70
     0
102
RTVSPropertyOp53
 70
     1
102
RTVSPropertyOp54
 70
     1
102
RTVSPropertyOp55
 70
     1
102
RTVSPropertyOp56
 70
     1
102
RTVSPropertyOp57
 70
     1
102
RTVSPost2010Prop28
280
     0
102
RTVSPost2010PropOp28
 70
     1
102
RTVSPost2010Prop29
280
     1
102
RTVSPost2010PropOp29
 70
     1
102
RTVSPost2010Prop30
280
     1
102
RTVSPost2010PropOp30
 70
     1
102
RTVSPost2010Prop31
280
     0
102
RTVSPost2010PropOp31
 70
     1
102
RTVSPost2010Prop32
280
     0
102
RTVSPost2010PropOp32
 70
     1
102
RTVSPost2010Prop33
280
     0
102
RTVSPost2010PropOp33
 70
     1
102
RTVSPost2010Prop34
280
     0
102
RTVSPost2010PropOp34
 70
     1
102
RTVSPost2010Prop35
280
     0
102
RTVSPost2010PropOp35
 70
     1
102
RTVSPost2010Prop36
280
     0
102
RTVSPost2010PropOp36
 70
     1
102
RTVSPost2010Prop37
 90
       50
102
RTVSPost2010PropOp37
 70
     1
102
RTVSPost2010Prop38
140
0.0
102
RTVSPost2010PropOp38
 70
     1
102
RTVSPost2010Prop39
140
1.0
102
RTVSPost2010PropOp39
 70
     1
102
RTVSPost2010Prop40
 90
        0
102
RTVSPost2010PropOp40
 70
     1
102
RTVSPost2010Prop41ColorIndex
 90
       18
102
RTVSPost2010Prop41ColorRGB
 90
        0
102
RTVSPost2010PropOp41
 70
     1
102
RTVSPost2010Prop42
 90
       50
102
RTVSPost2010PropOp42
 70
     1
102
RTVSPost2010Prop43
 90
        3
102
RTVSPost2010PropOp43
 70
     1
102
RTVSPost2010Prop44ColorIndex
 90
        5
102
RTVSPost2010Prop44ColorRGB
 90
      255
102
RTVSPost2010PropOp44
 70
     1
102
RTVSPost2010Prop45
280
     0
102
RTVSPost2010PropOp45
 70
     1
102
RTVSPost2010Prop46
 90
       50
102
RTVSPost2010PropOp46
 70
     1
102
RTVSPost2010Prop47
 90
       50
102
RTVSPost2010PropOp47
 70
     1
102
RTVSPost2010Prop48
 90
       50
102
RTVSPost2010PropOp48
 70
     1
102
RTVSPost2010Prop49
280
     0
102
RTVSPost2010PropOp49
 70
     1
102
RTVSPost2010Prop50
 90
       50
102
RTVSPost2010PropOp50
 70
     1
102
RTVSPost2010Prop51ColorIndex
 90
      256
102
RTVSPost2010Prop51ColorRGB
 90
-16777216
102
RTVSPost2010PropOp51
 70
     0
102
RTVSPost2010Prop52
140
1.0
102
RTVSPost2010PropOp52
 70
     0
102
RTVSPost2010Prop53
 90
        2
102
RTVSPost2010PropOp53
 70
     1
102
RTVSPost2010Prop54
  1
strokes_ogs.tif
102
RTVSPost2010PropOp54
 70
     1
102
RTVSPost2010Prop55
280
     0
102
RTVSPost2010PropOp55
 70
     1
102
RTVSPost2010Prop56
140
1.0
102
RTVSPost2010PropOp56
 70
     1
102
RTVSPost2010Prop57
140
1.0
102
RTVSPost2010PropOp57
 70
     1
  0
XRECORD
  5
2E6
102
{ACAD_REACTORS
330
2E5
102
}
330
2E5
100
AcDbXrecord
280
     1
102
RTVSPropertyOp0
 70
     1
102
RTVSPropertyOp1
 70
     1
102
RTVSPropertyOp2
 70
     1
102
RTVSPropertyOp3
 70
     1
102
RTVSPropertyOp4
 70
     1
102
RTVSPropertyOp5
 70
     1
102
RTVSPropertyOp6
 70
     1
102
RTVSPropertyOp7
 70
     1
102
RTVSPropertyOp8
 70
     1
102
RTVSPropertyOp9
 70
     1
102
RTVSPropertyOp10
 70
     1
102
RTVSPropertyOp11
 70
     1
102
RTVSPropertyOp12
 70
     1
102
RTVSPropertyOp13
 70
     1
102
RTVSPropertyOp14
 70
     1
102
RTVSPropertyOp15
 70
     1
102
RTVSPropertyOp16
 70
     1
102
RTVSPropertyOp17
 70
     1
102
RTVSPropertyOp18
 70
     1
102
RTVSPropertyOp19
 70
     1
102
RTVSPropertyOp20
 70
     1
102
RTVSPropertyOp21
 70
     1
102
RTVSPropertyOp22
 70
     1
102
RTVSPropertyOp23
 70
     1
102
RTVSPropertyOp24
 70
     1
102
RTVSPropertyOp25
 70
     1
102
RTVSPropertyOp26
 70
     1
102
RTVSPropertyOp27
 70
     1
102
RTVSPropertyOp28
 70
     1
102
RTVSPropertyOp29
 70
     1
102
RTVSPropertyOp30
 70
     1
102
RTVSPropertyOp31
 70
     1
102
RTVSPropertyOp32
 70
     1
102
RTVSPropertyOp33
 70
     1
102
RTVSPropertyOp34
 70
     1
102
RTVSPropertyOp35
 70
     1
102
RTVSPropertyOp36
 70
     1
102
RTVSPropertyOp37
 70
     1
102
RTVSPropertyOp38
 70
     1
102
RTVSPropertyOp39
 70
     1
102
RTVSPropertyOp40
 70
     1
102
RTVSPropertyOp41
 70
     1
102
RTVSPropertyOp42
 70
     1
102
RTVSPropertyOp43
 70
     1
102
RTVSPropertyOp44
 70
     1
102
RTVSPropertyOp45
 70
     1
102
RTVSPropertyOp46
 70
     1
102
RTVSPropertyOp47
 70
     1
102
RTVSPropertyOp48
 70
     1
102
RTVSPropertyOp49
 70
     1
102
RTVSPropertyOp50
 70
     1
102
RTVSPropertyOp51
 70
     0
102
RTVSPropertyOp52
 70
     0
102
RTVSPropertyOp53
 70
     1
102
RTVSPropertyOp54
 70
     1
102
RTVSPropertyOp55
 70
     1
102
RTVSPropertyOp56
 70
     1
102
RTVSPropertyOp57
 70
     1
102
RTVSPost2010Prop28
280
     0
102
RTVSPost2010PropOp28
 70
     1
102
RTVSPost2010Prop29
280
     1
102
RTVSPost2010PropOp29
 70
     1
102
RTVSPost2010Prop30
280
     1
102
RTVSPost2010PropOp30
 70
     1
102
RTVSPost2010Prop31
280
     0
102
RTVSPost2010PropOp31
 70
     1
102
RTVSPost2010Prop32
280
     0
102
RTVSPost2010PropOp32
 70
     1
102
RTVSPost2010Prop33
280
     0
102
RTVSPost2010PropOp33
 70
     1
102
RTVSPost2010Prop34
280
     0
102
RTVSPost2010PropOp34
 70
     1
102
RTVSPost2010Prop35
280
     0
102
RTVSPost2010PropOp35
 70
     1
102
RTVSPost2010Prop36
280
     0
102
RTVSPost2010PropOp36
 70
     1
102
RTVSPost2010Prop37
 90
       50
102
RTVSPost2010PropOp37
 70
     1
102
RTVSPost2010Prop38
140
0.0
102
RTVSPost2010PropOp38
 70
     1
102
RTVSPost2010Prop39
140
1.0
102
RTVSPost2010PropOp39
 70
     1
102
RTVSPost2010Prop40
 90
        0
102
RTVSPost2010PropOp40
 70
     1
102
RTVSPost2010Prop41ColorIndex
 90
       18
102
RTVSPost2010Prop41ColorRGB
 90
        0
102
RTVSPost2010PropOp41
 70
     1
102
RTVSPost2010Prop42
 90
       50
102
RTVSPost2010PropOp42
 70
     1
102
RTVSPost2010Prop43
 90
        3
102
RTVSPost2010PropOp43
 70
     1
102
RTVSPost2010Prop44ColorIndex
 90
        5
102
RTVSPost2010Prop44ColorRGB
 90
      255
102
RTVSPost2010PropOp44
 70
     1
102
RTVSPost2010Prop45
280
     0
102
RTVSPost2010PropOp45
 70
     1
102
RTVSPost2010Prop46
 90
       50
102
RTVSPost2010PropOp46
 70
     1
102
RTVSPost2010Prop47
 90
       50
102
RTVSPost2010PropOp47
 70
     1
102
RTVSPost2010Prop48
 90
       50
102
RTVSPost2010PropOp48
 70
     1
102
RTVSPost2010Prop49
280
     0
102
RTVSPost2010PropOp49
 70
     1
102
RTVSPost2010Prop50
 90
       50
102
RTVSPost2010PropOp50
 70
     1
102
RTVSPost2010Prop51ColorIndex
 90
      256
102
RTVSPost2010Prop51ColorRGB
 90
-16777216
102
RTVSPost2010PropOp51
 70
     0
102
RTVSPost2010Prop52
140
1.0
102
RTVSPost2010PropOp52
 70
     0
102
RTVSPost2010Prop53
 90
        2
102
RTVSPost2010PropOp53
 70
     1
102
RTVSPost2010Prop54
  1
strokes_ogs.tif
102
RTVSPost2010PropOp54
 70
     1
102
RTVSPost2010Prop55
280
     0
102
RTVSPost2010PropOp55
 70
     1
102
RTVSPost2010Prop56
140
1.0
102
RTVSPost2010PropOp56
 70
     1
102
RTVSPost2010Prop57
140
1.0
102
RTVSPost2010PropOp57
 70
     1
  0
XRECORD
  5
2E4
102
{ACAD_REACTORS
330
2E3
102
}
330
2E3
100
AcDbXrecord
280
     1
102
RTVSPropertyOp0
 70
     1
102
RTVSPropertyOp1
 70
     1
102
RTVSPropertyOp2
 70
     1
102
RTVSPropertyOp3
 70
     1
102
RTVSPropertyOp4
 70
     1
102
RTVSPropertyOp5
 70
     1
102
RTVSPropertyOp6
 70
     1
102
RTVSPropertyOp7
 70
     1
102
RTVSPropertyOp8
 70
     1
102
RTVSPropertyOp9
 70
     1
102
RTVSPropertyOp10
 70
     1
102
RTVSPropertyOp11
 70
     1
102
RTVSPropertyOp12
 70
     1
102
RTVSPropertyOp13
 70
     1
102
RTVSPropertyOp14
 70
     1
102
RTVSPropertyOp15
 70
     1
102
RTVSPropertyOp16
 70
     1
102
RTVSPropertyOp17
 70
     1
102
RTVSPropertyOp18
 70
     1
102
RTVSPropertyOp19
 70
     1
102
RTVSPropertyOp20
 70
     1
102
RTVSPropertyOp21
 70
     1
102
RTVSPropertyOp22
 70
     1
102
RTVSPropertyOp23
 70
     1
102
RTVSPropertyOp24
 70
     1
102
RTVSPropertyOp25
 70
     1
102
RTVSPropertyOp26
 70
     1
102
RTVSPropertyOp27
 70
     1
102
RTVSPropertyOp28
 70
     1
102
RTVSPropertyOp29
 70
     1
102
RTVSPropertyOp30
 70
     1
102
RTVSPropertyOp31
 70
     1
102
RTVSPropertyOp32
 70
     1
102
RTVSPropertyOp33
 70
     1
102
RTVSPropertyOp34
 70
     1
102
RTVSPropertyOp35
 70
     1
102
RTVSPropertyOp36
 70
     1
102
RTVSPropertyOp37
 70
     1
102
RTVSPropertyOp38
 70
     1
102
RTVSPropertyOp39
 70
     1
102
RTVSPropertyOp40
 70
     1
102
RTVSPropertyOp41
 70
     1
102
RTVSPropertyOp42
 70
     1
102
RTVSPropertyOp43
 70
     1
102
RTVSPropertyOp44
 70
     1
102
RTVSPropertyOp45
 70
     1
102
RTVSPropertyOp46
 70
     1
102
RTVSPropertyOp47
 70
     1
102
RTVSPropertyOp48
 70
     1
102
RTVSPropertyOp49
 70
     1
102
RTVSPropertyOp50
 70
     1
102
RTVSPropertyOp51
 70
     0
102
RTVSPropertyOp52
 70
     0
102
RTVSPropertyOp53
 70
     1
102
RTVSPropertyOp54
 70
     1
102
RTVSPropertyOp55
 70
     1
102
RTVSPropertyOp56
 70
     1
102
RTVSPropertyOp57
 70
     1
102
RTVSPost2010Prop28
280
     0
102
RTVSPost2010PropOp28
 70
     1
102
RTVSPost2010Prop29
280
     1
102
RTVSPost2010PropOp29
 70
     1
102
RTVSPost2010Prop30
280
     1
102
RTVSPost2010PropOp30
 70
     1
102
RTVSPost2010Prop31
280
     0
102
RTVSPost2010PropOp31
 70
     1
102
RTVSPost2010Prop32
280
     0
102
RTVSPost2010PropOp32
 70
     1
102
RTVSPost2010Prop33
280
     0
102
RTVSPost2010PropOp33
 70
     1
102
RTVSPost2010Prop34
280
     0
102
RTVSPost2010PropOp34
 70
     1
102
RTVSPost2010Prop35
280
     0
102
RTVSPost2010PropOp35
 70
     1
102
RTVSPost2010Prop36
280
     0
102
RTVSPost2010PropOp36
 70
     1
102
RTVSPost2010Prop37
 90
       50
102
RTVSPost2010PropOp37
 70
     1
102
RTVSPost2010Prop38
140
0.0
102
RTVSPost2010PropOp38
 70
     1
102
RTVSPost2010Prop39
140
1.0
102
RTVSPost2010PropOp39
 70
     1
102
RTVSPost2010Prop40
 90
        0
102
RTVSPost2010PropOp40
 70
     1
102
RTVSPost2010Prop41ColorIndex
 90
       18
102
RTVSPost2010Prop41ColorRGB
 90
        0
102
RTVSPost2010PropOp41
 70
     1
102
RTVSPost2010Prop42
 90
       50
102
RTVSPost2010PropOp42
 70
     1
102
RTVSPost2010Prop43
 90
        3
102
RTVSPost2010PropOp43
 70
     1
102
RTVSPost2010Prop44ColorIndex
 90
        5
102
RTVSPost2010Prop44ColorRGB
 90
      255
102
RTVSPost2010PropOp44
 70
     1
102
RTVSPost2010Prop45
280
     0
102
RTVSPost2010PropOp45
 70
     1
102
RTVSPost2010Prop46
 90
       50
102
RTVSPost2010PropOp46
 70
     1
102
RTVSPost2010Prop47
 90
       50
102
RTVSPost2010PropOp47
 70
     1
102
RTVSPost2010Prop48
 90
       50
102
RTVSPost2010PropOp48
 70
     1
102
RTVSPost2010Prop49
280
     0
102
RTVSPost2010PropOp49
 70
     1
102
RTVSPost2010Prop50
 90
       50
102
RTVSPost2010PropOp50
 70
     1
102
RTVSPost2010Prop51ColorIndex
 90
      256
102
RTVSPost2010Prop51ColorRGB
 90
-16777216
102
RTVSPost2010PropOp51
 70
     0
102
RTVSPost2010Prop52
140
1.0
102
RTVSPost2010PropOp52
 70
     0
102
RTVSPost2010Prop53
 90
        2
102
RTVSPost2010PropOp53
 70
     1
102
RTVSPost2010Prop54
  1
strokes_ogs.tif
102
RTVSPost2010PropOp54
 70
     1
102
RTVSPost2010Prop55
280
     0
102
RTVSPost2010PropOp55
 70
     1
102
RTVSPost2010Prop56
140
1.0
102
RTVSPost2010PropOp56
 70
     1
102
RTVSPost2010Prop57
140
1.0
102
RTVSPost2010PropOp57
 70
     1
  0
XRECORD
  5
2DE
102
{ACAD_REACTORS
330
2DD
102
}
330
2DD
100
AcDbXrecord
280
     1
102
RTVSPropertyOp0
 70
     1
102
RTVSPropertyOp1
 70
     1
102
RTVSPropertyOp2
 70
     1
102
RTVSPropertyOp3
 70
     1
102
RTVSPropertyOp4
 70
     1
102
RTVSPropertyOp5
 70
     1
102
RTVSPropertyOp6
 70
     1
102
RTVSPropertyOp7
 70
     1
102
RTVSPropertyOp8
 70
     1
102
RTVSPropertyOp9
 70
     1
102
RTVSPropertyOp10
 70
     1
102
RTVSPropertyOp11
 70
     1
102
RTVSPropertyOp12
 70
     1
102
RTVSPropertyOp13
 70
     1
102
RTVSPropertyOp14
 70
     1
102
RTVSPropertyOp15
 70
     1
102
RTVSPropertyOp16
 70
     1
102
RTVSPropertyOp17
 70
     1
102
RTVSPropertyOp18
 70
     1
102
RTVSPropertyOp19
 70
     1
102
RTVSPropertyOp20
 70
     1
102
RTVSPropertyOp21
 70
     1
102
RTVSPropertyOp22
 70
     1
102
RTVSPropertyOp23
 70
     1
102
RTVSPropertyOp24
 70
     1
102
RTVSPropertyOp25
 70
     1
102
RTVSPropertyOp26
 70
     1
102
RTVSPropertyOp27
 70
     1
102
RTVSPropertyOp28
 70
     1
102
RTVSPropertyOp29
 70
     1
102
RTVSPropertyOp30
 70
     1
102
RTVSPropertyOp31
 70
     1
102
RTVSPropertyOp32
 70
     1
102
RTVSPropertyOp33
 70
     1
102
RTVSPropertyOp34
 70
     1
102
RTVSPropertyOp35
 70
     1
102
RTVSPropertyOp36
 70
     1
102
RTVSPropertyOp37
 70
     1
102
RTVSPropertyOp38
 70
     1
102
RTVSPropertyOp39
 70
     1
102
RTVSPropertyOp40
 70
     1
102
RTVSPropertyOp41
 70
     1
102
RTVSPropertyOp42
 70
     1
102
RTVSPropertyOp43
 70
     1
102
RTVSPropertyOp44
 70
     1
102
RTVSPropertyOp45
 70
     1
102
RTVSPropertyOp46
 70
     1
102
RTVSPropertyOp47
 70
     1
102
RTVSPropertyOp48
 70
     1
102
RTVSPropertyOp49
 70
     1
102
RTVSPropertyOp50
 70
     1
102
RTVSPropertyOp51
 70
     0
102
RTVSPropertyOp52
 70
     0
102
RTVSPropertyOp53
 70
     1
102
RTVSPropertyOp54
 70
     1
102
RTVSPropertyOp55
 70
     1
102
RTVSPropertyOp56
 70
     1
102
RTVSPropertyOp57
 70
     1
102
RTVSPost2010Prop28
280
     0
102
RTVSPost2010PropOp28
 70
     1
102
RTVSPost2010Prop29
280
     1
102
RTVSPost2010PropOp29
 70
     1
102
RTVSPost2010Prop30
280
     1
102
RTVSPost2010PropOp30
 70
     1
102
RTVSPost2010Prop31
280
     0
102
RTVSPost2010PropOp31
 70
     1
102
RTVSPost2010Prop32
280
     0
102
RTVSPost2010PropOp32
 70
     1
102
RTVSPost2010Prop33
280
     0
102
RTVSPost2010PropOp33
 70
     1
102
RTVSPost2010Prop34
280
     0
102
RTVSPost2010PropOp34
 70
     1
102
RTVSPost2010Prop35
280
     0
102
RTVSPost2010PropOp35
 70
     1
102
RTVSPost2010Prop36
280
     0
102
RTVSPost2010PropOp36
 70
     1
102
RTVSPost2010Prop37
 90
       50
102
RTVSPost2010PropOp37
 70
     1
102
RTVSPost2010Prop38
140
0.0
102
RTVSPost2010PropOp38
 70
     1
102
RTVSPost2010Prop39
140
1.0
102
RTVSPost2010PropOp39
 70
     1
102
RTVSPost2010Prop40
 90
        0
102
RTVSPost2010PropOp40
 70
     1
102
RTVSPost2010Prop41ColorIndex
 90
       18
102
RTVSPost2010Prop41ColorRGB
 90
        0
102
RTVSPost2010PropOp41
 70
     1
102
RTVSPost2010Prop42
 90
       50
102
RTVSPost2010PropOp42
 70
     1
102
RTVSPost2010Prop43
 90
        3
102
RTVSPost2010PropOp43
 70
     1
102
RTVSPost2010Prop44ColorIndex
 90
        5
102
RTVSPost2010Prop44ColorRGB
 90
      255
102
RTVSPost2010PropOp44
 70
     1
102
RTVSPost2010Prop45
280
     0
102
RTVSPost2010PropOp45
 70
     1
102
RTVSPost2010Prop46
 90
       50
102
RTVSPost2010PropOp46
 70
     1
102
RTVSPost2010Prop47
 90
       50
102
RTVSPost2010PropOp47
 70
     1
102
RTVSPost2010Prop48
 90
       50
102
RTVSPost2010PropOp48
 70
     1
102
RTVSPost2010Prop49
280
     0
102
RTVSPost2010PropOp49
 70
     1
102
RTVSPost2010Prop50
 90
       50
102
RTVSPost2010PropOp50
 70
     1
102
RTVSPost2010Prop51ColorIndex
 90
      256
102
RTVSPost2010Prop51ColorRGB
 90
-16777216
102
RTVSPost2010PropOp51
 70
     0
102
RTVSPost2010Prop52
140
1.0
102
RTVSPost2010PropOp52
 70
     0
102
RTVSPost2010Prop53
 90
        2
102
RTVSPost2010PropOp53
 70
     1
102
RTVSPost2010Prop54
  1
strokes_ogs.tif
102
RTVSPost2010PropOp54
 70
     1
102
RTVSPost2010Prop55
280
     0
102
RTVSPost2010PropOp55
 70
     1
102
RTVSPost2010Prop56
140
1.0
102
RTVSPost2010PropOp56
 70
     1
102
RTVSPost2010Prop57
140
1.0
102
RTVSPost2010PropOp57
 70
     1
  0
XRECORD
  5
2E0
102
{ACAD_REACTORS
330
2DF
102
}
330
2DF
100
AcDbXrecord
280
     1
102
RTVSPropertyOp0
 70
     1
102
RTVSPropertyOp1
 70
     1
102
RTVSPropertyOp2
 70
     1
102
RTVSPropertyOp3
 70
     1
102
RTVSPropertyOp4
 70
     1
102
RTVSPropertyOp5
 70
     1
102
RTVSPropertyOp6
 70
     1
102
RTVSPropertyOp7
 70
     1
102
RTVSPropertyOp8
 70
     1
102
RTVSPropertyOp9
 70
     1
102
RTVSPropertyOp10
 70
     1
102
RTVSPropertyOp11
 70
     1
102
RTVSPropertyOp12
 70
     1
102
RTVSPropertyOp13
 70
     1
102
RTVSPropertyOp14
 70
     1
102
RTVSPropertyOp15
 70
     1
102
RTVSPropertyOp16
 70
     1
102
RTVSPropertyOp17
 70
     1
102
RTVSPropertyOp18
 70
     1
102
RTVSPropertyOp19
 70
     1
102
RTVSPropertyOp20
 70
     1
102
RTVSPropertyOp21
 70
     1
102
RTVSPropertyOp22
 70
     1
102
RTVSPropertyOp23
 70
     1
102
RTVSPropertyOp24
 70
     1
102
RTVSPropertyOp25
 70
     1
102
RTVSPropertyOp26
 70
     1
102
RTVSPropertyOp27
 70
     1
102
RTVSPropertyOp28
 70
     1
102
RTVSPropertyOp29
 70
     1
102
RTVSPropertyOp30
 70
     1
102
RTVSPropertyOp31
 70
     1
102
RTVSPropertyOp32
 70
     1
102
RTVSPropertyOp33
 70
     1
102
RTVSPropertyOp34
 70
     1
102
RTVSPropertyOp35
 70
     1
102
RTVSPropertyOp36
 70
     1
102
RTVSPropertyOp37
 70
     1
102
RTVSPropertyOp38
 70
     1
102
RTVSPropertyOp39
 70
     1
102
RTVSPropertyOp40
 70
     1
102
RTVSPropertyOp41
 70
     1
102
RTVSPropertyOp42
 70
     1
102
RTVSPropertyOp43
 70
     1
102
RTVSPropertyOp44
 70
     1
102
RTVSPropertyOp45
 70
     1
102
RTVSPropertyOp46
 70
     1
102
RTVSPropertyOp47
 70
     1
102
RTVSPropertyOp48
 70
     1
102
RTVSPropertyOp49
 70
     1
102
RTVSPropertyOp50
 70
     1
102
RTVSPropertyOp51
 70
     0
102
RTVSPropertyOp52
 70
     0
102
RTVSPropertyOp53
 70
     1
102
RTVSPropertyOp54
 70
     1
102
RTVSPropertyOp55
 70
     1
102
RTVSPropertyOp56
 70
     1
102
RTVSPropertyOp57
 70
     1
102
RTVSPost2010Prop28
280
     0
102
RTVSPost2010PropOp28
 70
     1
102
RTVSPost2010Prop29
280
     1
102
RTVSPost2010PropOp29
 70
     1
102
RTVSPost2010Prop30
280
     1
102
RTVSPost2010PropOp30
 70
     1
102
RTVSPost2010Prop31
280
     0
102
RTVSPost2010PropOp31
 70
     1
102
RTVSPost2010Prop32
280
     0
102
RTVSPost2010PropOp32
 70
     1
102
RTVSPost2010Prop33
280
     0
102
RTVSPost2010PropOp33
 70
     1
102
RTVSPost2010Prop34
280
     0
102
RTVSPost2010PropOp34
 70
     1
102
RTVSPost2010Prop35
280
     0
102
RTVSPost2010PropOp35
 70
     1
102
RTVSPost2010Prop36
280
     0
102
RTVSPost2010PropOp36
 70
     1
102
RTVSPost2010Prop37
 90
       50
102
RTVSPost2010PropOp37
 70
     1
102
RTVSPost2010Prop38
140
0.0
102
RTVSPost2010PropOp38
 70
     1
102
RTVSPost2010Prop39
140
1.0
102
RTVSPost2010PropOp39
 70
     1
102
RTVSPost2010Prop40
 90
        0
102
RTVSPost2010PropOp40
 70
     1
102
RTVSPost2010Prop41ColorIndex
 90
       18
102
RTVSPost2010Prop41ColorRGB
 90
        0
102
RTVSPost2010PropOp41
 70
     1
102
RTVSPost2010Prop42
 90
       50
102
RTVSPost2010PropOp42
 70
     1
102
RTVSPost2010Prop43
 90
        3
102
RTVSPost2010PropOp43
 70
     1
102
RTVSPost2010Prop44ColorIndex
 90
        5
102
RTVSPost2010Prop44ColorRGB
 90
      255
102
RTVSPost2010PropOp44
 70
     1
102
RTVSPost2010Prop45
280
     0
102
RTVSPost2010PropOp45
 70
     1
102
RTVSPost2010Prop46
 90
       50
102
RTVSPost2010PropOp46
 70
     1
102
RTVSPost2010Prop47
 90
       50
102
RTVSPost2010PropOp47
 70
     1
102
RTVSPost2010Prop48
 90
       50
102
RTVSPost2010PropOp48
 70
     1
102
RTVSPost2010Prop49
280
     0
102
RTVSPost2010PropOp49
 70
     1
102
RTVSPost2010Prop50
 90
       50
102
RTVSPost2010PropOp50
 70
     1
102
RTVSPost2010Prop51ColorIndex
 90
      256
102
RTVSPost2010Prop51ColorRGB
 90
-16777216
102
RTVSPost2010PropOp51
 70
     0
102
RTVSPost2010Prop52
140
1.0
102
RTVSPost2010PropOp52
 70
     0
102
RTVSPost2010Prop53
 90
        2
102
RTVSPost2010PropOp53
 70
     1
102
RTVSPost2010Prop54
  1
strokes_ogs.tif
102
RTVSPost2010PropOp54
 70
     1
102
RTVSPost2010Prop55
280
     0
102
RTVSPost2010PropOp55
 70
     1
102
RTVSPost2010Prop56
140
1.0
102
RTVSPost2010PropOp56
 70
     1
102
RTVSPost2010Prop57
140
1.0
102
RTVSPost2010PropOp57
 70
     1
  0
XRECORD
  5
2D0
102
{ACAD_REACTORS
330
2CF
102
}
330
2CF
100
AcDbXrecord
280
     1
102
RTVSPropertyOp0
 70
     1
102
RTVSPropertyOp1
 70
     1
102
RTVSPropertyOp2
 70
     1
102
RTVSPropertyOp3
 70
     1
102
RTVSPropertyOp4
 70
     1
102
RTVSPropertyOp5
 70
     1
102
RTVSPropertyOp6
 70
     1
102
RTVSPropertyOp7
 70
     1
102
RTVSPropertyOp8
 70
     1
102
RTVSPropertyOp9
 70
     1
102
RTVSPropertyOp10
 70
     1
102
RTVSPropertyOp11
 70
     1
102
RTVSPropertyOp12
 70
     1
102
RTVSPropertyOp13
 70
     1
102
RTVSPropertyOp14
 70
     1
102
RTVSPropertyOp15
 70
     1
102
RTVSPropertyOp16
 70
     1
102
RTVSPropertyOp17
 70
     1
102
RTVSPropertyOp18
 70
     1
102
RTVSPropertyOp19
 70
     1
102
RTVSPropertyOp20
 70
     1
102
RTVSPropertyOp21
 70
     1
102
RTVSPropertyOp22
 70
     1
102
RTVSPropertyOp23
 70
     1
102
RTVSPropertyOp24
 70
     1
102
RTVSPropertyOp25
 70
     1
102
RTVSPropertyOp26
 70
     1
102
RTVSPropertyOp27
 70
     1
102
RTVSPropertyOp28
 70
     1
102
RTVSPropertyOp29
 70
     1
102
RTVSPropertyOp30
 70
     1
102
RTVSPropertyOp31
 70
     1
102
RTVSPropertyOp32
 70
     1
102
RTVSPropertyOp33
 70
     1
102
RTVSPropertyOp34
 70
     1
102
RTVSPropertyOp35
 70
     1
102
RTVSPropertyOp36
 70
     1
102
RTVSPropertyOp37
 70
     1
102
RTVSPropertyOp38
 70
     1
102
RTVSPropertyOp39
 70
     1
102
RTVSPropertyOp40
 70
     1
102
RTVSPropertyOp41
 70
     1
102
RTVSPropertyOp42
 70
     1
102
RTVSPropertyOp43
 70
     1
102
RTVSPropertyOp44
 70
     1
102
RTVSPropertyOp45
 70
     1
102
RTVSPropertyOp46
 70
     1
102
RTVSPropertyOp47
 70
     1
102
RTVSPropertyOp48
 70
     1
102
RTVSPropertyOp49
 70
     1
102
RTVSPropertyOp50
 70
     1
102
RTVSPropertyOp51
 70
     0
102
RTVSPropertyOp52
 70
     0
102
RTVSPropertyOp53
 70
     1
102
RTVSPropertyOp54
 70
     1
102
RTVSPropertyOp55
 70
     1
102
RTVSPropertyOp56
 70
     1
102
RTVSPropertyOp57
 70
     1
102
RTVSPost2010Prop28
280
     0
102
RTVSPost2010PropOp28
 70
     1
102
RTVSPost2010Prop29
280
     1
102
RTVSPost2010PropOp29
 70
     1
102
RTVSPost2010Prop30
280
     1
102
RTVSPost2010PropOp30
 70
     1
102
RTVSPost2010Prop31
280
     0
102
RTVSPost2010PropOp31
 70
     1
102
RTVSPost2010Prop32
280
     0
102
RTVSPost2010PropOp32
 70
     1
102
RTVSPost2010Prop33
280
     0
102
RTVSPost2010PropOp33
 70
     1
102
RTVSPost2010Prop34
280
     0
102
RTVSPost2010PropOp34
 70
     1
102
RTVSPost2010Prop35
280
     0
102
RTVSPost2010PropOp35
 70
     1
102
RTVSPost2010Prop36
280
     0
102
RTVSPost2010PropOp36
 70
     1
102
RTVSPost2010Prop37
 90
       50
102
RTVSPost2010PropOp37
 70
     1
102
RTVSPost2010Prop38
140
0.0
102
RTVSPost2010PropOp38
 70
     1
102
RTVSPost2010Prop39
140
1.0
102
RTVSPost2010PropOp39
 70
     1
102
RTVSPost2010Prop40
 90
        0
102
RTVSPost2010PropOp40
 70
     1
102
RTVSPost2010Prop41ColorIndex
 90
       18
102
RTVSPost2010Prop41ColorRGB
 90
        0
102
RTVSPost2010PropOp41
 70
     1
102
RTVSPost2010Prop42
 90
       50
102
RTVSPost2010PropOp42
 70
     1
102
RTVSPost2010Prop43
 90
        3
102
RTVSPost2010PropOp43
 70
     1
102
RTVSPost2010Prop44ColorIndex
 90
        5
102
RTVSPost2010Prop44ColorRGB
 90
      255
102
RTVSPost2010PropOp44
 70
     1
102
RTVSPost2010Prop45
280
     0
102
RTVSPost2010PropOp45
 70
     1
102
RTVSPost2010Prop46
 90
       50
102
RTVSPost2010PropOp46
 70
     1
102
RTVSPost2010Prop47
 90
       50
102
RTVSPost2010PropOp47
 70
     1
102
RTVSPost2010Prop48
 90
       50
102
RTVSPost2010PropOp48
 70
     1
102
RTVSPost2010Prop49
280
     0
102
RTVSPost2010PropOp49
 70
     1
102
RTVSPost2010Prop50
 90
       50
102
RTVSPost2010PropOp50
 70
     1
102
RTVSPost2010Prop51ColorIndex
 90
      256
102
RTVSPost2010Prop51ColorRGB
 90
-16777216
102
RTVSPost2010PropOp51
 70
     0
102
RTVSPost2010Prop52
140
1.0
102
RTVSPost2010PropOp52
 70
     0
102
RTVSPost2010Prop53
 90
        2
102
RTVSPost2010PropOp53
 70
     1
102
RTVSPost2010Prop54
  1
strokes_ogs.tif
102
RTVSPost2010PropOp54
 70
     1
102
RTVSPost2010Prop55
280
     0
102
RTVSPost2010PropOp55
 70
     1
102
RTVSPost2010Prop56
140
1.0
102
RTVSPost2010PropOp56
 70
     1
102
RTVSPost2010Prop57
140
1.0
102
RTVSPost2010PropOp57
 70
     1
  0
XRECORD
  5
2C2
102
{ACAD_REACTORS
330
2C1
102
}
330
2C1
100
AcDbXrecord
280
     1
102
RTVSPropertyOp0
 70
     1
102
RTVSPropertyOp1
 70
     1
102
RTVSPropertyOp2
 70
     1
102
RTVSPropertyOp3
 70
     1
102
RTVSPropertyOp4
 70
     1
102
RTVSPropertyOp5
 70
     1
102
RTVSPropertyOp6
 70
     1
102
RTVSPropertyOp7
 70
     1
102
RTVSPropertyOp8
 70
     1
102
RTVSPropertyOp9
 70
     1
102
RTVSPropertyOp10
 70
     1
102
RTVSPropertyOp11
 70
     1
102
RTVSPropertyOp12
 70
     1
102
RTVSPropertyOp13
 70
     1
102
RTVSPropertyOp14
 70
     1
102
RTVSPropertyOp15
 70
     1
102
RTVSPropertyOp16
 70
     1
102
RTVSPropertyOp17
 70
     1
102
RTVSPropertyOp18
 70
     1
102
RTVSPropertyOp19
 70
     1
102
RTVSPropertyOp20
 70
     1
102
RTVSPropertyOp21
 70
     1
102
RTVSPropertyOp22
 70
     1
102
RTVSPropertyOp23
 70
     1
102
RTVSPropertyOp24
 70
     1
102
RTVSPropertyOp25
 70
     1
102
RTVSPropertyOp26
 70
     1
102
RTVSPropertyOp27
 70
     1
102
RTVSPropertyOp28
 70
     1
102
RTVSPropertyOp29
 70
     1
102
RTVSPropertyOp30
 70
     1
102
RTVSPropertyOp31
 70
     1
102
RTVSPropertyOp32
 70
     1
102
RTVSPropertyOp33
 70
     1
102
RTVSPropertyOp34
 70
     1
102
RTVSPropertyOp35
 70
     1
102
RTVSPropertyOp36
 70
     1
102
RTVSPropertyOp37
 70
     1
102
RTVSPropertyOp38
 70
     1
102
RTVSPropertyOp39
 70
     1
102
RTVSPropertyOp40
 70
     1
102
RTVSPropertyOp41
 70
     1
102
RTVSPropertyOp42
 70
     1
102
RTVSPropertyOp43
 70
     1
102
RTVSPropertyOp44
 70
     1
102
RTVSPropertyOp45
 70
     1
102
RTVSPropertyOp46
 70
     1
102
RTVSPropertyOp47
 70
     1
102
RTVSPropertyOp48
 70
     1
102
RTVSPropertyOp49
 70
     1
102
RTVSPropertyOp50
 70
     1
102
RTVSPropertyOp51
 70
     0
102
RTVSPropertyOp52
 70
     0
102
RTVSPropertyOp53
 70
     1
102
RTVSPropertyOp54
 70
     1
102
RTVSPropertyOp55
 70
     1
102
RTVSPropertyOp56
 70
     1
102
RTVSPropertyOp57
 70
     1
102
RTVSPost2010Prop28
280
     0
102
RTVSPost2010PropOp28
 70
     1
102
RTVSPost2010Prop29
280
     1
102
RTVSPost2010PropOp29
 70
     1
102
RTVSPost2010Prop30
280
     1
102
RTVSPost2010PropOp30
 70
     1
102
RTVSPost2010Prop31
280
     0
102
RTVSPost2010PropOp31
 70
     1
102
RTVSPost2010Prop32
280
     0
102
RTVSPost2010PropOp32
 70
     1
102
RTVSPost2010Prop33
280
     0
102
RTVSPost2010PropOp33
 70
     1
102
RTVSPost2010Prop34
280
     0
102
RTVSPost2010PropOp34
 70
     1
102
RTVSPost2010Prop35
280
     0
102
RTVSPost2010PropOp35
 70
     1
102
RTVSPost2010Prop36
280
     0
102
RTVSPost2010PropOp36
 70
     1
102
RTVSPost2010Prop37
 90
       50
102
RTVSPost2010PropOp37
 70
     1
102
RTVSPost2010Prop38
140
0.0
102
RTVSPost2010PropOp38
 70
     1
102
RTVSPost2010Prop39
140
1.0
102
RTVSPost2010PropOp39
 70
     1
102
RTVSPost2010Prop40
 90
        0
102
RTVSPost2010PropOp40
 70
     1
102
RTVSPost2010Prop41ColorIndex
 90
       18
102
RTVSPost2010Prop41ColorRGB
 90
        0
102
RTVSPost2010PropOp41
 70
     1
102
RTVSPost2010Prop42
 90
       50
102
RTVSPost2010PropOp42
 70
     1
102
RTVSPost2010Prop43
 90
        3
102
RTVSPost2010PropOp43
 70
     1
102
RTVSPost2010Prop44ColorIndex
 90
        5
102
RTVSPost2010Prop44ColorRGB
 90
      255
102
RTVSPost2010PropOp44
 70
     1
102
RTVSPost2010Prop45
280
     0
102
RTVSPost2010PropOp45
 70
     1
102
RTVSPost2010Prop46
 90
       50
102
RTVSPost2010PropOp46
 70
     1
102
RTVSPost2010Prop47
 90
       50
102
RTVSPost2010PropOp47
 70
     1
102
RTVSPost2010Prop48
 90
       50
102
RTVSPost2010PropOp48
 70
     1
102
RTVSPost2010Prop49
280
     0
102
RTVSPost2010PropOp49
 70
     1
102
RTVSPost2010Prop50
 90
       50
102
RTVSPost2010PropOp50
 70
     1
102
RTVSPost2010Prop51ColorIndex
 90
      256
102
RTVSPost2010Prop51ColorRGB
 90
-16777216
102
RTVSPost2010PropOp51
 70
     0
102
RTVSPost2010Prop52
140
1.0
102
RTVSPost2010PropOp52
 70
     0
102
RTVSPost2010Prop53
 90
        2
102
RTVSPost2010PropOp53
 70
     1
102
RTVSPost2010Prop54
  1
strokes_ogs.tif
102
RTVSPost2010PropOp54
 70
     1
102
RTVSPost2010Prop55
280
     0
102
RTVSPost2010PropOp55
 70
     1
102
RTVSPost2010Prop56
140
1.0
102
RTVSPost2010PropOp56
 70
     1
102
RTVSPost2010Prop57
140
1.0
102
RTVSPost2010PropOp57
 70
     1
  0
XRECORD
  5
2E2
102
{ACAD_REACTORS
330
2E1
102
}
330
2E1
100
AcDbXrecord
280
     1
102
RTVSPropertyOp0
 70
     1
102
RTVSPropertyOp1
 70
     1
102
RTVSPropertyOp2
 70
     1
102
RTVSPropertyOp3
 70
     1
102
RTVSPropertyOp4
 70
     1
102
RTVSPropertyOp5
 70
     1
102
RTVSPropertyOp6
 70
     1
102
RTVSPropertyOp7
 70
     1
102
RTVSPropertyOp8
 70
     1
102
RTVSPropertyOp9
 70
     1
102
RTVSPropertyOp10
 70
     1
102
RTVSPropertyOp11
 70
     1
102
RTVSPropertyOp12
 70
     1
102
RTVSPropertyOp13
 70
     1
102
RTVSPropertyOp14
 70
     1
102
RTVSPropertyOp15
 70
     1
102
RTVSPropertyOp16
 70
     1
102
RTVSPropertyOp17
 70
     1
102
RTVSPropertyOp18
 70
     1
102
RTVSPropertyOp19
 70
     1
102
RTVSPropertyOp20
 70
     1
102
RTVSPropertyOp21
 70
     1
102
RTVSPropertyOp22
 70
     1
102
RTVSPropertyOp23
 70
     1
102
RTVSPropertyOp24
 70
     1
102
RTVSPropertyOp25
 70
     1
102
RTVSPropertyOp26
 70
     1
102
RTVSPropertyOp27
 70
     1
102
RTVSPropertyOp28
 70
     1
102
RTVSPropertyOp29
 70
     1
102
RTVSPropertyOp30
 70
     1
102
RTVSPropertyOp31
 70
     1
102
RTVSPropertyOp32
 70
     1
102
RTVSPropertyOp33
 70
     1
102
RTVSPropertyOp34
 70
     1
102
RTVSPropertyOp35
 70
     1
102
RTVSPropertyOp36
 70
     1
102
RTVSPropertyOp37
 70
     1
102
RTVSPropertyOp38
 70
     1
102
RTVSPropertyOp39
 70
     1
102
RTVSPropertyOp40
 70
     1
102
RTVSPropertyOp41
 70
     1
102
RTVSPropertyOp42
 70
     1
102
RTVSPropertyOp43
 70
     1
102
RTVSPropertyOp44
 70
     1
102
RTVSPropertyOp45
 70
     1
102
RTVSPropertyOp46
 70
     1
102
RTVSPropertyOp47
 70
     1
102
RTVSPropertyOp48
 70
     1
102
RTVSPropertyOp49
 70
     1
102
RTVSPropertyOp50
 70
     1
102
RTVSPropertyOp51
 70
     0
102
RTVSPropertyOp52
 70
     0
102
RTVSPropertyOp53
 70
     1
102
RTVSPropertyOp54
 70
     1
102
RTVSPropertyOp55
 70
     1
102
RTVSPropertyOp56
 70
     1
102
RTVSPropertyOp57
 70
     1
102
RTVSPost2010Prop28
280
     0
102
RTVSPost2010PropOp28
 70
     1
102
RTVSPost2010Prop29
280
     1
102
RTVSPost2010PropOp29
 70
     1
102
RTVSPost2010Prop30
280
     1
102
RTVSPost2010PropOp30
 70
     1
102
RTVSPost2010Prop31
280
     0
102
RTVSPost2010PropOp31
 70
     1
102
RTVSPost2010Prop32
280
     0
102
RTVSPost2010PropOp32
 70
     1
102
RTVSPost2010Prop33
280
     0
102
RTVSPost2010PropOp33
 70
     1
102
RTVSPost2010Prop34
280
     0
102
RTVSPost2010PropOp34
 70
     1
102
RTVSPost2010Prop35
280
     0
102
RTVSPost2010PropOp35
 70
     1
102
RTVSPost2010Prop36
280
     0
102
RTVSPost2010PropOp36
 70
     1
102
RTVSPost2010Prop37
 90
       50
102
RTVSPost2010PropOp37
 70
     1
102
RTVSPost2010Prop38
140
0.0
102
RTVSPost2010PropOp38
 70
     1
102
RTVSPost2010Prop39
140
1.0
102
RTVSPost2010PropOp39
 70
     1
102
RTVSPost2010Prop40
 90
        0
102
RTVSPost2010PropOp40
 70
     1
102
RTVSPost2010Prop41ColorIndex
 90
       18
102
RTVSPost2010Prop41ColorRGB
 90
        0
102
RTVSPost2010PropOp41
 70
     1
102
RTVSPost2010Prop42
 90
       50
102
RTVSPost2010PropOp42
 70
     1
102
RTVSPost2010Prop43
 90
        3
102
RTVSPost2010PropOp43
 70
     1
102
RTVSPost2010Prop44ColorIndex
 90
        5
102
RTVSPost2010Prop44ColorRGB
 90
      255
102
RTVSPost2010PropOp44
 70
     1
102
RTVSPost2010Prop45
280
     0
102
RTVSPost2010PropOp45
 70
     1
102
RTVSPost2010Prop46
 90
       50
102
RTVSPost2010PropOp46
 70
     1
102
RTVSPost2010Prop47
 90
       50
102
RTVSPost2010PropOp47
 70
     1
102
RTVSPost2010Prop48
 90
       50
102
RTVSPost2010PropOp48
 70
     1
102
RTVSPost2010Prop49
280
     0
102
RTVSPost2010PropOp49
 70
     1
102
RTVSPost2010Prop50
 90
       50
102
RTVSPost2010PropOp50
 70
     1
102
RTVSPost2010Prop51ColorIndex
 90
      256
102
RTVSPost2010Prop51ColorRGB
 90
-16777216
102
RTVSPost2010PropOp51
 70
     0
102
RTVSPost2010Prop52
140
1.0
102
RTVSPost2010PropOp52
 70
     0
102
RTVSPost2010Prop53
 90
        2
102
RTVSPost2010PropOp53
 70
     1
102
RTVSPost2010Prop54
  1
strokes_ogs.tif
102
RTVSPost2010PropOp54
 70
     1
102
RTVSPost2010Prop55
280
     0
102
RTVSPost2010PropOp55
 70
     1
102
RTVSPost2010Prop56
140
1.0
102
RTVSPost2010PropOp56
 70
     1
102
RTVSPost2010Prop57
140
1.0
102
RTVSPost2010PropOp57
 70
     1
  0
ENDSEC
  0
EOF
