  0
SECTION
  2
HEADER
  9
$ACADVER
  1
AC1018
  9
$ACADMAINTVER
 70
     0
  9
$DWGCODEPAGE
  3
ANSI_1252
  9
$COMMENTS
  1
File was created by Mastercam X9
  9
$INSBASE
 10
0.0
 20
0.0
 30
0.0
  9
$EXTMIN
 10
-3084.397520343072
 20
-8743.030534297368
 30
0.0
  9
$EXTMAX
 10
1070.752970341116
 20
158.4225744750364
 30
0.0
  9
$LIMMIN
 10
0.0
 20
0.0
  9
$LIMMAX
 10
12.0
 20
9.0
  9
$ORTHOMODE
 70
     0
  9
$REGENMODE
 70
     1
  9
$FILLMODE
 70
     1
  9
$QTEXTMODE
 70
     0
  9
$MIRRTEXT
 70
     1
  9
$LTSCALE
 40
1.0
  9
$ATTMODE
 70
     1
  9
$TEXTSIZE
 40
0.2
  9
$TRACEWID
 40
0.05
  9
$TEXTSTYLE
  7
Standard
  9
$CLAYER
  8
0
  9
$CELTYPE
  6
ByLayer
  9
$CECOLOR
 62
   256
  9
$CELTSCALE
 40
1.0
  9
$DISPSILH
 70
     0
  9
$DIMSCALE
 40
1.0
  9
$DIMASZ
 40
0.18
  9
$DIMEXO
 40
0.0625
  9
$DIMDLI
 40
0.38
  9
$DIMRND
 40
0.0
  9
$DIMDLE
 40
0.0
  9
$DIMEXE
 40
0.18
  9
$DIMTP
 40
0.0
  9
$DIMTM
 40
0.0
  9
$DIMTXT
 40
0.18
  9
$DIMCEN
 40
0.09
  9
$DIMTSZ
 40
0.0
  9
$DIMTOL
 70
     0
  9
$DIMLIM
 70
     0
  9
$DIMTIH
 70
     1
  9
$DIMTOH
 70
     1
  9
$DIMSE1
 70
     0
  9
$DIMSE2
 70
     0
  9
$DIMTAD
 70
     0
  9
$DIMZIN
 70
     0
  9
$DIMBLK
  1

  9
$DIMASO
 70
     1
  9
$DIMSHO
 70
     1
  9
$DIMPOST
  1

  9
$DIMAPOST
  1

  9
$DIMALT
 70
     0
  9
$DIMALTD
 70
     2
  9
$DIMALTF
 40
25.4
  9
$DIMLFAC
 40
1.0
  9
$DIMTOFL
 70
     0
  9
$DIMTVP
 40
0.0
  9
$DIMTIX
 70
     0
  9
$DIMSOXD
 70
     0
  9
$DIMSAH
 70
     0
  9
$DIMBLK1
  1

  9
$DIMBLK2
  1

  9
$DIMSTYLE
  2
Standard
  9
$DIMCLRD
 70
     0
  9
$DIMCLRE
 70
     0
  9
$DIMCLRT
 70
     0
  9
$DIMTFAC
 40
1.0
  9
$DIMGAP
 40
0.09
  9
$DIMJUST
 70
     0
  9
$DIMSD1
 70
     0
  9
$DIMSD2
 70
     0
  9
$DIMTOLJ
 70
     1
  9
$DIMTZIN
 70
     0
  9
$DIMALTZ
 70
     0
  9
$DIMALTTZ
 70
     0
  9
$DIMUPT
 70
     0
  9
$DIMDEC
 70
     4
  9
$DIMTDEC
 70
     4
  9
$DIMALTU
 70
     2
  9
$DIMALTTD
 70
     2
  9
$DIMTXSTY
  7
Standard
  9
$DIMAUNIT
 70
     0
  9
$DIMADEC
 70
     0
  9
$DIMALTRND
 40
0.0
  9
$DIMAZIN
 70
     0
  9
$DIMDSEP
 70
    46
  9
$DIMATFIT
 70
     3
  9
$DIMFRAC
 70
     0
  9
$DIMLDRBLK
  1

  9
$DIMLUNIT
 70
     2
  9
$DIMLWD
 70
    -2
  9
$DIMLWE
 70
    -2
  9
$DIMTMOVE
 70
     0
  9
$LUNITS
 70
     2
  9
$LUPREC
 70
     4
  9
$SKETCHINC
 40
0.1
  9
$FILLETRAD
 40
0.5
  9
$AUNITS
 70
     0
  9
$AUPREC
 70
     0
  9
$MENU
  1
.
  9
$ELEVATION
 40
0.0
  9
$PELEVATION
 40
0.0
  9
$THICKNESS
 40
0.0
  9
$LIMCHECK
 70
     0
  9
$CHAMFERA
 40
0.0
  9
$CHAMFERB
 40
0.0
  9
$CHAMFERC
 40
0.0
  9
$CHAMFERD
 40
0.0
  9
$SKPOLY
 70
     0
  9
$TDCREATE
 40
2453737.5
  9
$TDUCREATE
 40
2453737.708333333
  9
$TDUPDATE
 40
2457613.662336053
  9
$TDUUPDATE
 40
2457613.870669386
  9
$TDINDWG
 40
0.0000000116
  9
$TDUSRTIMER
 40
0.0000000116
  9
$USRTIMER
 70
     1
  9
$ANGBASE
 50
0.0
  9
$ANGDIR
 70
     0
  9
$PDMODE
 70
     2
  9
$PDSIZE
 40
0.1
  9
$PLINEWID
 40
0.0
  9
$SPLFRAME
 70
     0
  9
$SPLINETYPE
 70
     6
  9
$SPLINESEGS
 70
     8
  9
$HANDSEED
  5
34F
  9
$SURFTAB1
 70
     6
  9
$SURFTAB2
 70
     6
  9
$SURFTYPE
 70
     6
  9
$SURFU
 70
     6
  9
$SURFV
 70
     6
  9
$UCSBASE
  2

  9
$UCSNAME
  2

  9
$UCSORG
 10
0.0
 20
0.0
 30
0.0
  9
$UCSXDIR
 10
1.0
 20
0.0
 30
0.0
  9
$UCSYDIR
 10
0.0
 20
1.0
 30
0.0
  9
$UCSORTHOREF
  2

  9
$UCSORTHOVIEW
 70
     0
  9
$UCSORGTOP
 10
0.0
 20
0.0
 30
0.0
  9
$UCSORGBOTTOM
 10
0.0
 20
0.0
 30
0.0
  9
$UCSORGLEFT
 10
0.0
 20
0.0
 30
0.0
  9
$UCSORGRIGHT
 10
0.0
 20
0.0
 30
0.0
  9
$UCSORGFRONT
 10
0.0
 20
0.0
 30
0.0
  9
$UCSORGBACK
 10
0.0
 20
0.0
 30
0.0
  9
$PUCSBASE
  2

  9
$PUCSNAME
  2

  9
$PUCSORG
 10
0.0
 20
0.0
 30
0.0
  9
$PUCSXDIR
 10
1.0
 20
0.0
 30
0.0
  9
$PUCSYDIR
 10
0.0
 20
1.0
 30
0.0
  9
$PUCSORTHOREF
  2

  9
$PUCSORTHOVIEW
 70
     0
  9
$PUCSORGTOP
 10
0.0
 20
0.0
 30
0.0
  9
$PUCSORGBOTTOM
 10
0.0
 20
0.0
 30
0.0
  9
$PUCSORGLEFT
 10
0.0
 20
0.0
 30
0.0
  9
$PUCSORGRIGHT
 10
0.0
 20
0.0
 30
0.0
  9
$PUCSORGFRONT
 10
0.0
 20
0.0
 30
0.0
  9
$PUCSORGBACK
 10
0.0
 20
0.0
 30
0.0
  9
$USERI1
 70
     0
  9
$USERI2
 70
     0
  9
$USERI3
 70
     0
  9
$USERI4
 70
     0
  9
$USERI5
 70
     0
  9
$USERR1
 40
0.0
  9
$USERR2
 40
0.0
  9
$USERR3
 40
0.0
  9
$USERR4
 40
0.0
  9
$USERR5
 40
0.0
  9
$WORLDVIEW
 70
     1
  9
$SHADEDGE
 70
     3
  9
$SHADEDIF
 70
    70
  9
$TILEMODE
 70
     1
  9
$MAXACTVP
 70
    64
  9
$PINSBASE
 10
0.0
 20
0.0
 30
0.0
  9
$PLIMCHECK
 70
     0
  9
$PEXTMIN
 10
0.0
 20
0.0
 30
0.0
  9
$PEXTMAX
 10
0.0
 20
0.0
 30
0.0
  9
$PLIMMIN
 10
-0.25
 20
-0.25
  9
$PLIMMAX
 10
10.75
 20
8.25
  9
$UNITMODE
 70
     0
  9
$VISRETAIN
 70
     1
  9
$PLINEGEN
 70
     0
  9
$PSLTSCALE
 70
     1
  9
$TREEDEPTH
 70
  3020
  9
$CMLSTYLE
  2
Standard
  9
$CMLJUST
 70
     0
  9
$CMLSCALE
 40
1.0
  9
$PROXYGRAPHICS
 70
     1
  9
$MEASUREMENT
 70
     0
  9
$CELWEIGHT
370
    -1
  9
$ENDCAPS
280
     0
  9
$JOINSTYLE
280
     0
  9
$LWDISPLAY
290
     0
  9
$INSUNITS
 70
     1
  9
$HYPERLINKBASE
  1

  9
$STYLESHEET
  1

  9
$XEDIT
290
     1
  9
$CEPSNTYPE
380
     0
  9
$PSTYLEMODE
290
     1
  9
$FINGERPRINTGUID
  2
{642A0C4D-190E-4434-B82F-BB071D28DFEB}
  9
$VERSIONGUID
  2
{FAEB1C32-E019-11D5-929B-00C0DF256EC4}
  9
$EXTNAMES
290
     1
  9
$PSVPSCALE
 40
0.0
  9
$OLESTARTUP
290
     0
  9
$SORTENTS
280
   127
  9
$INDEXCTL
280
     0
  9
$HIDETEXT
280
     1
  9
$XCLIPFRAME
290
     0
  9
$HALOGAP
280
     0
  9
$OBSCOLOR
 70
   257
  9
$OBSLTYPE
280
     0
  9
$INTERSECTIONDISPLAY
280
     0
  9
$INTERSECTIONCOLOR
 70
   257
  9
$DIMASSOC
280
     2
  9
$PROJECTNAME
  1

  0
ENDSEC
  0
SECTION
  2
CLASSES
  0
CLASS
  1
ACDBDICTIONARYWDFLT
  2
AcDbDictionaryWithDefault
  3
ObjectDBX Classes
 90
        0
 91
        4
280
     0
281
     0
  0
CLASS
  1
VISUALSTYLE
  2
AcDbVisualStyle
  3
ObjectDBX Classes
 90
     4095
 91
        4
280
     0
281
     0
  0
CLASS
  1
MATERIAL
  2
AcDbMaterial
  3
ObjectDBX Classes
 90
     1153
 91
        4
280
     0
281
     0
  0
CLASS
  1
SCALE
  2
AcDbScale
  3
ObjectDBX Classes
 90
     1153
 91
        4
280
     0
281
     0
  0
CLASS
  1
TABLESTYLE
  2
AcDbTableStyle
  3
ObjectDBX Classes
 90
     4095
 91
        4
280
     0
281
     0
  0
CLASS
  1
MLEADERSTYLE
  2
AcDbMLeaderStyle
  3
ACDB_MLEADERSTYLE_CLASS
 90
     4095
 91
        4
280
     0
281
     0
  0
CLASS
  1
SUN
  2
AcDbSun
  3
SCENEOE
 90
     1153
 91
        4
280
     0
281
     0
  0
CLASS
  1
DICTIONARYVAR
  2
AcDbDictionaryVar
  3
ObjectDBX Classes
 90
        0
 91
        4
280
     0
281
     0
  0
CLASS
  1
CELLSTYLEMAP
  2
AcDbCellStyleMap
  3
ObjectDBX Classes
 90
     1152
 91
        4
280
     0
281
     0
  0
ENDSEC
  0
SECTION
  2
TABLES
  0
TABLE
  2
VPORT
  5
8
102
{ACAD_XDICTIONARY
360
308
102
}
330
0
100
AcDbSymbolTable
 70
     1
  0
VPORT
  5
29
330
8
100
AcDbSymbolTableRecord
100
AcDbViewportTableRecord
  2
*Active
 70
     0
 10
0.0
 20
0.0
 11
1.0
 21
1.0
 12
10.42990654205607
 22
4.5
 13
0.0
 23
0.0
 14
0.5
 24
0.5
 15
0.5
 25
0.5
 16
0.0
 26
0.0
 36
1.0
 17
0.0
 27
0.0
 37
0.0
 40
9.0
 41
1.972972972850329
 42
50.0
 43
0.0
 44
0.0
 50
0.0
 51
0.0
 71
     0
 72
   100
 73
     1
 74
     3
 75
     0
 76
     0
 77
     0
 78
     0
281
     0
 65
     1
110
0.0
120
0.0
130
0.0
111
1.0
121
0.0
131
0.0
112
0.0
122
1.0
132
0.0
 79
     0
146
0.0
  0
ENDTAB
  0
TABLE
  2
LTYPE
  5
5
330
0
100
AcDbSymbolTable
 70
     5
  0
LTYPE
  5
14
330
5
100
AcDbSymbolTableRecord
100
AcDbLinetypeTableRecord
  2
ByBlock
 70
     0
  3

 72
    65
 73
     0
 40
0.0
  0
LTYPE
  5
15
330
5
100
AcDbSymbolTableRecord
100
AcDbLinetypeTableRecord
  2
ByLayer
 70
     0
  3

 72
    65
 73
     0
 40
0.0
  0
LTYPE
  5
16
330
5
100
AcDbSymbolTableRecord
100
AcDbLinetypeTableRecord
  2
Continuous
 70
     0
  3
Solid line
 72
    65
 73
     0
 40
0.0
  0
LTYPE
  5
6F
330
5
100
AcDbSymbolTableRecord
100
AcDbLinetypeTableRecord
  2
Continuous2
 70
     0
  3
Solid Line
 72
    65
 73
     0
 40
0.0
  0
LTYPE
  5
70
330
5
100
AcDbSymbolTableRecord
100
AcDbLinetypeTableRecord
  2
DASHED
 70
     0
  3
__ __ __ __ __ __ __ __ __ __ __ __ __ __ __ __
 72
    83
 73
     2
 40
0.5
 49
0.375
 74
     0
 49
-0.125
 74
     0
  0
LTYPE
  5
71
330
5
100
AcDbSymbolTableRecord
100
AcDbLinetypeTableRecord
  2
CENTER
 70
     0
  3
____ _ ____ _ ____ _ ____ _ ____ _ ____ _ ____ _
 72
    83
 73
     4
 40
1.0
 49
0.625
 74
     0
 49
-0.125
 74
     0
 49
0.125
 74
     0
 49
-0.125
 74
     0
  0
LTYPE
  5
72
330
5
100
AcDbSymbolTableRecord
100
AcDbLinetypeTableRecord
  2
PHANTOM
 70
     0
  3
___ _ _ ___ _ _ ___ _ _ ___ _ _ ___ _ _ ___ _ _ 
 72
    83
 73
     6
 40
1.0
 49
0.5
 74
     0
 49
-0.1
 74
     0
 49
0.1
 74
     0
 49
-0.1
 74
     0
 49
0.1
 74
     0
 49
-0.1
 74
     0
  0
ENDTAB
  0
TABLE
  2
LAYER
  5
2
330
0
100
AcDbSymbolTable
 70
    36
  0
LAYER
  5
10
330
2
100
AcDbSymbolTableRecord
100
AcDbLayerTableRecord
  2
0
 70
     0
 62
     7
  6
Continuous
370
    -3
390
F
  0
LAYER
  5
73
330
2
100
AcDbSymbolTableRecord
100
AcDbLayerTableRecord
  2
D2
 70
     0
 62
     1
  6
Continuous
370
    -3
390
F
  0
LAYER
  5
74
330
2
100
AcDbSymbolTableRecord
100
AcDbLayerTableRecord
  2
Generic Sections
 70
     0
 62
     1
  6
Continuous
370
    -3
390
F
  0
LAYER
  5
75
330
2
100
AcDbSymbolTableRecord
100
AcDbLayerTableRecord
  2
Section J
 70
     0
 62
     1
  6
Continuous
370
    -3
390
F
  0
LAYER
  5
76
330
2
100
AcDbSymbolTableRecord
100
AcDbLayerTableRecord
  2
Red Hidden Lines
 70
     0
 62
     1
  6
Continuous
370
    -3
390
F
  0
LAYER
  5
77
330
2
100
AcDbSymbolTableRecord
100
AcDbLayerTableRecord
  2
Door D6
 70
     0
 62
     1
  6
Continuous
370
    -3
390
F
  0
LAYER
  5
78
330
2
100
AcDbSymbolTableRecord
100
AcDbLayerTableRecord
  2
Door D7 Tye 4 Dining
 70
     0
 62
     1
  6
Continuous
370
    -3
390
F
  0
LAYER
  5
79
330
2
100
AcDbSymbolTableRecord
100
AcDbLayerTableRecord
  2
Full Sections
 70
     0
 62
     1
  6
Continuous
370
    -3
390
F
  0
LAYER
  5
7A
330
2
100
AcDbSymbolTableRecord
100
AcDbLayerTableRecord
  2
Door D10
 70
     0
 62
     1
  6
Continuous
370
    -3
390
F
  0
LAYER
  5
7B
330
2
100
AcDbSymbolTableRecord
100
AcDbLayerTableRecord
  2
Impact Door Templates  Export to Drawings
 70
     0
 62
     1
  6
Continuous
370
    -3
390
F
  0
LAYER
  5
7C
330
2
100
AcDbSymbolTableRecord
100
AcDbLayerTableRecord
  2
Headers and Footers
 70
     0
 62
     1
  6
Continuous
370
    -3
390
F
  0
LAYER
  5
7D
330
2
100
AcDbSymbolTableRecord
100
AcDbLayerTableRecord
  2
Section Lines
 70
     0
 62
     1
  6
Continuous
370
    -3
390
F
  0
LAYER
  5
7E
330
2
100
AcDbSymbolTableRecord
100
AcDbLayerTableRecord
  2
Glass Marks
 70
     0
 62
     1
  6
Continuous
370
    -3
390
F
  0
LAYER
  5
7F
330
2
100
AcDbSymbolTableRecord
100
AcDbLayerTableRecord
  2
Glass Info For Production
 70
     0
 62
     1
  6
Continuous
370
    -3
390
F
  0
LAYER
  5
80
330
2
100
AcDbSymbolTableRecord
100
AcDbLayerTableRecord
  2
Impact Door Parts and ID Numbers
 70
     0
 62
     1
  6
Continuous
370
    -3
390
F
  0
LAYER
  5
81
330
2
100
AcDbSymbolTableRecord
100
AcDbLayerTableRecord
  2
Sticking and Panel Profiles
 70
     0
 62
     1
  6
Continuous
370
    -3
390
F
  0
LAYER
  5
82
330
2
100
AcDbSymbolTableRecord
100
AcDbLayerTableRecord
  2
Pink Reference Lines
 70
     0
 62
     1
  6
Continuous
370
    -3
390
F
  0
LAYER
  5
83
330
2
100
AcDbSymbolTableRecord
100
AcDbLayerTableRecord
  2
Glass
 70
     0
 62
     1
  6
Continuous
370
    -3
390
F
  0
LAYER
  5
84
330
2
100
AcDbSymbolTableRecord
100
AcDbLayerTableRecord
  2
Section B
 70
     0
 62
     1
  6
Continuous
370
    -3
390
F
  0
LAYER
  5
85
330
2
100
AcDbSymbolTableRecord
100
AcDbLayerTableRecord
  2
Section D
 70
     0
 62
     1
  6
Continuous
370
    -3
390
F
  0
LAYER
  5
86
330
2
100
AcDbSymbolTableRecord
100
AcDbLayerTableRecord
  2
Section E
 70
     0
 62
     1
  6
Continuous
370
    -3
390
F
  0
LAYER
  5
87
330
2
100
AcDbSymbolTableRecord
100
AcDbLayerTableRecord
  2
Section F
 70
     0
 62
     1
  6
Continuous
370
    -3
390
F
  0
LAYER
  5
88
330
2
100
AcDbSymbolTableRecord
100
AcDbLayerTableRecord
  2
Section G
 70
     0
 62
     1
  6
Continuous
370
    -3
390
F
  0
LAYER
  5
89
330
2
100
AcDbSymbolTableRecord
100
AcDbLayerTableRecord
  2
Section H
 70
     0
 62
     1
  6
Continuous
370
    -3
390
F
  0
LAYER
  5
8A
330
2
100
AcDbSymbolTableRecord
100
AcDbLayerTableRecord
  2
Section I
 70
     0
 62
     1
  6
Continuous
370
    -3
390
F
  0
LAYER
  5
8B
330
2
100
AcDbSymbolTableRecord
100
AcDbLayerTableRecord
  2
D4
 70
     0
 62
     1
  6
Continuous
370
    -3
390
F
  0
LAYER
  5
8C
330
2
100
AcDbSymbolTableRecord
100
AcDbLayerTableRecord
  2
D3
 70
     0
 62
     1
  6
Continuous
370
    -3
390
F
  0
LAYER
  5
8D
330
2
100
AcDbSymbolTableRecord
100
AcDbLayerTableRecord
  2
D5
 70
     0
 62
     1
  6
Continuous
370
    -3
390
F
  0
LAYER
  5
8E
330
2
100
AcDbSymbolTableRecord
100
AcDbLayerTableRecord
  2
D6
 70
     0
 62
     1
  6
Continuous
370
    -3
390
F
  0
LAYER
  5
8F
330
2
100
AcDbSymbolTableRecord
100
AcDbLayerTableRecord
  2
D7
 70
     0
 62
     1
  6
Continuous
370
    -3
390
F
  0
LAYER
  5
90
330
2
100
AcDbSymbolTableRecord
100
AcDbLayerTableRecord
  2
D8
 70
     0
 62
     1
  6
Continuous
370
    -3
390
F
  0
LAYER
  5
91
330
2
100
AcDbSymbolTableRecord
100
AcDbLayerTableRecord
  2
Section C
 70
     0
 62
     1
  6
Continuous
370
    -3
390
F
  0
LAYER
  5
92
330
2
100
AcDbSymbolTableRecord
100
AcDbLayerTableRecord
  2
Shelf Detail
 70
     0
 62
     1
  6
Continuous
370
    -3
390
F
  0
LAYER
  5
93
330
2
100
AcDbSymbolTableRecord
100
AcDbLayerTableRecord
  2
Section K
 70
     0
 62
     1
  6
Continuous
370
    -3
390
F
  0
LAYER
  5
94
330
2
100
AcDbSymbolTableRecord
100
AcDbLayerTableRecord
  2
Section L
 70
     0
 62
     1
  6
Continuous
370
    -3
390
F
  0
LAYER
  5
95
330
2
100
AcDbSymbolTableRecord
100
AcDbLayerTableRecord
  2
Trim Detail
 70
     0
 62
     1
  6
Continuous
370
    -3
390
F
  0
ENDTAB
  0
TABLE
  2
STYLE
  5
3
330
0
100
AcDbSymbolTable
 70
     4
  0
STYLE
  5
11
330
3
100
AcDbSymbolTableRecord
100
AcDbTextStyleTableRecord
  2
Standard
 70
     0
 40
0.0
 41
1.0
 50
0.0
 71
     0
 42
0.2
  3
txt
  4

  0
STYLE
  5
1A3
330
3
100
AcDbSymbolTableRecord
100
AcDbTextStyleTableRecord
  2
MCStick_A0.625000_S0.000000
 70
     0
 40
0.0
 41
0.625
 50
0.0
 71
     0
 42
0.2
  3
Simplex
  4

  0
STYLE
  5
1FA
330
3
100
AcDbSymbolTableRecord
100
AcDbTextStyleTableRecord
  2
MCStick_A0.500000_S0.000000
 70
     0
 40
0.0
 41
0.5
 50
0.0
 71
     0
 42
0.2
  3
Simplex
  4

  0
STYLE
  5
2B4
330
3
100
AcDbSymbolTableRecord
100
AcDbTextStyleTableRecord
  2
MCStick_A0.875000_S0.000000
 70
     0
 40
0.0
 41
0.875
 50
0.0
 71
     0
 42
0.2
  3
Simplex
  4

  0
ENDTAB
  0
TABLE
  2
VIEW
  5
6
330
0
100
AcDbSymbolTable
 70
     0
  0
ENDTAB
  0
TABLE
  2
UCS
  5
7
330
0
100
AcDbSymbolTable
 70
     0
  0
ENDTAB
  0
TABLE
  2
APPID
  5
9
330
0
100
AcDbSymbolTable
 70
     3
  0
APPID
  5
12
330
9
100
AcDbSymbolTableRecord
100
AcDbRegAppTableRecord
  2
ACAD
 70
     0
  0
APPID
  5
6E
330
9
100
AcDbSymbolTableRecord
100
AcDbRegAppTableRecord
  2
Mastercam X9
 70
     0
  0
APPID
  5
347
330
9
100
AcDbSymbolTableRecord
100
AcDbRegAppTableRecord
  2
ACAD_MLEADERVER
 70
     0
  0
ENDTAB
  0
TABLE
  2
DIMSTYLE
  5
A
330
0
100
AcDbSymbolTable
 70
     1
100
AcDbDimStyleTable
  0
DIMSTYLE
105
27
330
A
100
AcDbSymbolTableRecord
100
AcDbDimStyleTableRecord
  2
Standard
 70
     0
178
     0
340
11
  0
ENDTAB
  0
TABLE
  2
BLOCK_RECORD
  5
1
330
0
100
AcDbSymbolTable
 70
     1
  0
BLOCK_RECORD
  5
1F
330
1
100
AcDbSymbolTableRecord
100
AcDbBlockTableRecord
  2
*Model_Space
340
22
  0
BLOCK_RECORD
  5
23
330
1
100
AcDbSymbolTableRecord
100
AcDbBlockTableRecord
  2
*Paper_Space
340
26
  0
ENDTAB
  0
ENDSEC
  0
SECTION
  2
BLOCKS
  0
BLOCK
  5
20
330
1F
100
AcDbEntity
  8
0
100
AcDbBlockBegin
  2
*Model_Space
 70
     0
 10
0.0
 20
0.0
 30
0.0
  3
*Model_Space
  1

  0
ENDBLK
  5
21
330
1F
100
AcDbEntity
  8
0
100
AcDbBlockEnd
  0
BLOCK
  5
24
330
23
100
AcDbEntity
 67
     1
  8
0
100
AcDbBlockBegin
  2
*Paper_Space
 70
     0
 10
0.0
 20
0.0
 30
0.0
  3
*Paper_Space
  1

  0
ENDBLK
  5
25
330
23
100
AcDbEntity
 67
     1
  8
0
100
AcDbBlockEnd
  0
ENDSEC
  0
SECTION
  2
ENTITIES
  0
LINE
  5
96
330
1F
100
AcDbEntity
  8
Generic Sections
  6
Continuous2
 62
     8
420
  8421504
 60
     1
370
    -3
100
AcDbLine
 10
-3043.379565484238
 20
-63.40451131793242
 30
0.0
 11
-3043.287725254472
 21
-63.40451131793242
 31
0.0
  0
LINE
  5
97
330
1F
100
AcDbEntity
  8
Generic Sections
  6
Continuous2
 62
     8
420
  8421504
 60
     1
370
    -3
100
AcDbLine
 10
-3043.460106018227
 20
-63.59201131793242
 30
0.0
 11
-3043.353149876062
 21
-63.59201131793242
 31
0.0
  0
LINE
  5
98
330
1F
100
AcDbEntity
  8
Generic Sections
  6
Continuous2
 62
     8
420
  8421504
 60
     1
370
    -3
100
AcDbLine
 10
-3043.317065484238
 20
-63.59201131793242
 30
0.0
 11
-3043.233037754472
 21
-63.59201131793242
 31
0.0
  0
LINE
  5
99
330
1F
100
AcDbEntity
  8
Generic Sections
  6
Continuous2
 62
     8
420
  8421504
 60
     1
370
    -3
100
AcDbLine
 10
-3043.149565484237
 20
-63.40451131793242
 30
0.0
 11
-3043.057725254472
 21
-63.40451131793242
 31
0.0
  0
LINE
  5
9A
330
1F
100
AcDbEntity
  8
Generic Sections
  6
Continuous2
 62
     8
420
  8421504
 60
     1
370
    -3
100
AcDbLine
 10
-3043.123149876062
 20
-63.59201131793242
 30
0.0
 11
-3043.214986748894
 21
-63.59201131793242
 31
0.0
  0
LINE
  5
9B
330
1F
100
AcDbEntity
  8
Generic Sections
  6
Continuous2
 62
     8
420
  8421504
 60
     1
370
    -3
100
AcDbLine
 10
-3043.039674248894
 20
-63.40451131793242
 30
0.0
 11
-3042.955644013769
 21
-63.40451131793242
 31
0.0
  0
LINE
  5
9C
330
1F
100
AcDbEntity
  8
Generic Sections
  6
Continuous2
 62
     8
420
  8421504
 60
     1
370
    -3
100
AcDbLine
 10
-3042.433149876062
 20
-63.59201131793242
 30
0.0
 11
-3042.524986748894
 21
-63.59201131793242
 31
0.0
  0
LINE
  5
9D
330
1F
100
AcDbEntity
  8
Generic Sections
  6
Continuous2
 62
     8
420
  8421504
 60
     1
370
    -3
100
AcDbLine
 10
-3041.973149876062
 20
-63.59201131793242
 30
0.0
 11
-3042.064986748894
 21
-63.59201131793242
 31
0.0
  0
LINE
  5
9E
330
1F
100
AcDbEntity
  8
Generic Sections
  6
Continuous2
 62
     8
420
  8421504
 60
     1
370
    -3
100
AcDbLine
 10
-3041.889674248894
 20
-63.40451131793242
 30
0.0
 11
-3041.805644013769
 21
-63.40451131793242
 31
0.0
  0
LINE
  5
9F
330
1F
100
AcDbEntity
  8
Generic Sections
  6
Continuous2
 62
     8
420
  8421504
 60
     1
370
    -3
100
AcDbLine
 10
-3041.853037754472
 20
-63.59201131793242
 30
0.0
 11
-3041.937065484238
 21
-63.59201131793242
 31
0.0
  0
LINE
  5
A0
330
1F
100
AcDbEntity
  8
Generic Sections
  6
Continuous2
 62
     8
420
  8421504
 60
     1
370
    -3
100
AcDbLine
 10
-3041.743149876062
 20
-63.59201131793242
 30
0.0
 11
-3041.834986748894
 21
-63.59201131793242
 31
0.0
  0
LINE
  5
A1
330
1F
100
AcDbEntity
  8
Generic Sections
  6
Continuous2
 62
     8
420
  8421504
 60
     1
370
    -3
100
AcDbLine
 10
-3041.614012251683
 20
-63.60764394732695
 30
0.0
 11
-3041.604986748894
 21
-63.59201131793242
 31
0.0
  0
LINE
  5
A2
330
1F
100
AcDbEntity
  8
Generic Sections
  6
Continuous2
 62
     8
420
  8421504
 60
     1
370
    -3
100
AcDbLine
 10
-3041.614012251683
 20
-63.60764394732695
 30
0.0
 11
-3041.623037754472
 21
-63.59201131793242
 31
0.0
  0
LINE
  5
A3
330
1F
100
AcDbEntity
  8
Generic Sections
  6
Continuous2
 62
     8
420
  8421504
 60
     1
370
    -3
100
AcDbLine
 10
-3041.725107680149
 20
-63.62326131793242
 30
0.0
 11
-3041.743149876062
 21
-63.59201131793242
 31
0.0
  0
LINE
  5
A4
330
1F
100
AcDbEntity
  8
Generic Sections
  6
Continuous2
 62
     8
420
  8421504
 60
     1
370
    -3
100
AcDbLine
 10
-3041.787604749004
 20
-63.37326639482825
 30
0.0
 11
-3041.805644013769
 21
-63.40451131793242
 31
0.0
  0
LINE
  5
A5
330
1F
100
AcDbEntity
  8
Generic Sections
  6
Continuous2
 62
     8
420
  8421504
 60
     1
370
    -3
100
AcDbLine
 10
-3041.787607680149
 20
-63.37326131793242
 30
0.0
 11
-3041.769565484237
 21
-63.40451131793242
 31
0.0
  0
LINE
  5
A6
330
1F
100
AcDbEntity
  8
Generic Sections
  6
Continuous2
 62
     8
420
  8421504
 60
     1
370
    -3
100
AcDbLine
 10
-3041.668699751683
 20
-63.38887868853789
 30
0.0
 11
-3041.677725254472
 21
-63.40451131793242
 31
0.0
  0
LINE
  5
A7
330
1F
100
AcDbEntity
  8
Generic Sections
  6
Continuous2
 62
     8
420
  8421504
 60
     1
370
    -3
100
AcDbLine
 10
-3041.668699751683
 20
-63.38887868853789
 30
0.0
 11
-3041.659674248894
 21
-63.40451131793242
 31
0.0
  0
LINE
  5
A8
330
1F
100
AcDbEntity
  8
Generic Sections
  6
Continuous2
 62
     8
420
  8421504
 60
     1
370
    -3
100
AcDbLine
 10
-3041.844012251683
 20
-63.60764394732695
 30
0.0
 11
-3041.853037754472
 21
-63.59201131793242
 31
0.0
  0
LINE
  5
A9
330
1F
100
AcDbEntity
  8
Generic Sections
  6
Continuous2
 62
     8
420
  8421504
 60
     1
370
    -3
100
AcDbLine
 10
-3041.95510768015
 20
-63.62326131793242
 30
0.0
 11
-3041.973149876062
 21
-63.59201131793242
 31
0.0
  0
LINE
  5
AA
330
1F
100
AcDbEntity
  8
Generic Sections
  6
Continuous2
 62
     8
420
  8421504
 60
     1
370
    -3
100
AcDbLine
 10
-3042.017604749003
 20
-63.37326639482825
 30
0.0
 11
-3042.035644013769
 21
-63.40451131793242
 31
0.0
  0
LINE
  5
AB
330
1F
100
AcDbEntity
  8
Generic Sections
  6
Continuous2
 62
     8
420
  8421504
 60
     1
370
    -3
100
AcDbLine
 10
-3042.01760768015
 20
-63.37326131793242
 30
0.0
 11
-3041.999565484238
 21
-63.40451131793242
 31
0.0
  0
LINE
  5
AC
330
1F
100
AcDbEntity
  8
Generic Sections
  6
Continuous2
 62
     8
420
  8421504
 60
     1
370
    -3
100
AcDbLine
 10
-3042.074012251683
 20
-63.60764394732695
 30
0.0
 11
-3042.064986748894
 21
-63.59201131793242
 31
0.0
  0
LINE
  5
AD
330
1F
100
AcDbEntity
  8
Generic Sections
  6
Continuous2
 62
     8
420
  8421504
 60
     1
370
    -3
100
AcDbLine
 10
-3042.074012251683
 20
-63.60764394732695
 30
0.0
 11
-3042.083037754472
 21
-63.59201131793242
 31
0.0
  0
LINE
  5
AE
330
1F
100
AcDbEntity
  8
Generic Sections
  6
Continuous2
 62
     8
420
  8421504
 60
     1
370
    -3
100
AcDbLine
 10
-3042.185107680149
 20
-63.62326131793242
 30
0.0
 11
-3042.167065484237
 21
-63.59201131793242
 31
0.0
  0
LINE
  5
AF
330
1F
100
AcDbEntity
  8
Generic Sections
  6
Continuous2
 62
     8
420
  8421504
 60
     1
370
    -3
100
AcDbLine
 10
-3042.247607680149
 20
-63.37326131793242
 30
0.0
 11
-3042.229565484237
 21
-63.40451131793242
 31
0.0
  0
LINE
  5
B0
330
1F
100
AcDbEntity
  8
Generic Sections
  6
Continuous2
 62
     8
420
  8421504
 60
     1
370
    -3
100
AcDbLine
 10
-3042.128699751683
 20
-63.38887868853789
 30
0.0
 11
-3042.137725254472
 21
-63.40451131793242
 31
0.0
  0
LINE
  5
B1
330
1F
100
AcDbEntity
  8
Generic Sections
  6
Continuous2
 62
     8
420
  8421504
 60
     1
370
    -3
100
AcDbLine
 10
-3042.128699751683
 20
-63.38887868853789
 30
0.0
 11
-3042.119674248894
 21
-63.40451131793242
 31
0.0
  0
LINE
  5
B2
330
1F
100
AcDbEntity
  8
Generic Sections
  6
Continuous2
 62
     8
420
  8421504
 60
     1
370
    -3
100
AcDbLine
 10
-3042.304012251683
 20
-63.60764394732695
 30
0.0
 11
-3042.294986748894
 21
-63.59201131793242
 31
0.0
  0
LINE
  5
B3
330
1F
100
AcDbEntity
  8
Generic Sections
  6
Continuous2
 62
     8
420
  8421504
 60
     1
370
    -3
100
AcDbLine
 10
-3042.304012251683
 20
-63.60764394732695
 30
0.0
 11
-3042.313037754472
 21
-63.59201131793242
 31
0.0
  0
LINE
  5
B4
330
1F
100
AcDbEntity
  8
Generic Sections
  6
Continuous2
 62
     8
420
  8421504
 60
     1
370
    -3
100
AcDbLine
 10
-3042.41510768015
 20
-63.62326131793242
 30
0.0
 11
-3042.433149876062
 21
-63.59201131793242
 31
0.0
  0
LINE
  5
B5
330
1F
100
AcDbEntity
  8
Generic Sections
  6
Continuous2
 62
     8
420
  8421504
 60
     1
370
    -3
100
AcDbLine
 10
-3042.477604749003
 20
-63.37326639482825
 30
0.0
 11
-3042.495644013769
 21
-63.40451131793242
 31
0.0
  0
LINE
  5
B6
330
1F
100
AcDbEntity
  8
Generic Sections
  6
Continuous2
 62
     8
420
  8421504
 60
     1
370
    -3
100
AcDbLine
 10
-3042.47760768015
 20
-63.37326131793242
 30
0.0
 11
-3042.459565484238
 21
-63.40451131793242
 31
0.0
  0
LINE
  5
B7
330
1F
100
AcDbEntity
  8
Generic Sections
  6
Continuous2
 62
     8
420
  8421504
 60
     1
370
    -3
100
AcDbLine
 10
-3042.358699751683
 20
-63.38887868853789
 30
0.0
 11
-3042.349674248894
 21
-63.40451131793242
 31
0.0
  0
LINE
  5
B8
330
1F
100
AcDbEntity
  8
Generic Sections
  6
Continuous2
 62
     8
420
  8421504
 60
     1
370
    -3
100
AcDbLine
 10
-3042.588699751683
 20
-63.38887868853789
 30
0.0
 11
-3042.597725254472
 21
-63.40451131793242
 31
0.0
  0
LINE
  5
B9
330
1F
100
AcDbEntity
  8
Generic Sections
  6
Continuous2
 62
     8
420
  8421504
 60
     1
370
    -3
100
AcDbLine
 10
-3042.588699751683
 20
-63.38887868853789
 30
0.0
 11
-3042.579674248894
 21
-63.40451131793242
 31
0.0
  0
LINE
  5
BA
330
1F
100
AcDbEntity
  8
Generic Sections
  6
Continuous2
 62
     8
420
  8421504
 60
     1
370
    -3
100
AcDbLine
 10
-3042.764012251683
 20
-63.60764394732695
 30
0.0
 11
-3042.754986748894
 21
-63.59201131793242
 31
0.0
  0
LINE
  5
BB
330
1F
100
AcDbEntity
  8
Generic Sections
  6
Continuous2
 62
     8
420
  8421504
 60
     1
370
    -3
100
AcDbLine
 10
-3042.764012251683
 20
-63.60764394732695
 30
0.0
 11
-3042.773037754472
 21
-63.59201131793242
 31
0.0
  0
LINE
  5
BC
330
1F
100
AcDbEntity
  8
Generic Sections
  6
Continuous2
 62
     8
420
  8421504
 60
     1
370
    -3
100
AcDbLine
 10
-3042.87510768015
 20
-63.62326131793242
 30
0.0
 11
-3042.893149876062
 21
-63.59201131793242
 31
0.0
  0
LINE
  5
BD
330
1F
100
AcDbEntity
  8
Generic Sections
  6
Continuous2
 62
     8
420
  8421504
 60
     1
370
    -3
100
AcDbLine
 10
-3042.87510768015
 20
-63.62326131793242
 30
0.0
 11
-3042.857065484238
 21
-63.59201131793242
 31
0.0
  0
LINE
  5
BE
330
1F
100
AcDbEntity
  8
Generic Sections
  6
Continuous2
 62
     8
420
  8421504
 60
     1
370
    -3
100
AcDbLine
 10
-3042.93760768015
 20
-63.37326131793242
 30
0.0
 11
-3042.919565484238
 21
-63.40451131793242
 31
0.0
  0
LINE
  5
BF
330
1F
100
AcDbEntity
  8
Generic Sections
  6
Continuous2
 62
     8
420
  8421504
 60
     1
370
    -3
100
AcDbLine
 10
-3042.818699751683
 20
-63.38887868853789
 30
0.0
 11
-3042.827725254472
 21
-63.40451131793242
 31
0.0
  0
LINE
  5
C0
330
1F
100
AcDbEntity
  8
Generic Sections
  6
Continuous2
 62
     8
420
  8421504
 60
     1
370
    -3
100
AcDbLine
 10
-3042.818699751683
 20
-63.38887868853789
 30
0.0
 11
-3042.809674248894
 21
-63.40451131793242
 31
0.0
  0
LINE
  5
C1
330
1F
100
AcDbEntity
  8
Generic Sections
  6
Continuous2
 62
     8
420
  8421504
 60
     1
370
    -3
100
AcDbLine
 10
-3043.10510768015
 20
-63.62326131793242
 30
0.0
 11
-3043.123149876062
 21
-63.59201131793242
 31
0.0
  0
LINE
  5
C2
330
1F
100
AcDbEntity
  8
Generic Sections
  6
Continuous2
 62
     8
420
  8421504
 60
     1
370
    -3
100
AcDbLine
 10
-3043.16760768015
 20
-63.37326131793242
 30
0.0
 11
-3043.149565484237
 21
-63.40451131793242
 31
0.0
  0
LINE
  5
C3
330
1F
100
AcDbEntity
  8
Generic Sections
  6
Continuous2
 62
     8
420
  8421504
 60
     1
370
    -3
100
AcDbLine
 10
-3043.048699751683
 20
-63.38887868853789
 30
0.0
 11
-3043.057725254472
 21
-63.40451131793242
 31
0.0
  0
LINE
  5
C4
330
1F
100
AcDbEntity
  8
Generic Sections
  6
Continuous2
 62
     8
420
  8421504
 60
     1
370
    -3
100
AcDbLine
 10
-3043.224012251683
 20
-63.60764394732695
 30
0.0
 11
-3043.233037754472
 21
-63.59201131793242
 31
0.0
  0
LINE
  5
C5
330
1F
100
AcDbEntity
  8
Generic Sections
  6
Continuous2
 62
     8
420
  8421504
 60
     1
370
    -3
100
AcDbLine
 10
-3043.33510768015
 20
-63.62326131793242
 30
0.0
 11
-3043.353149876062
 21
-63.59201131793242
 31
0.0
  0
LINE
  5
C6
330
1F
100
AcDbEntity
  8
Generic Sections
  6
Continuous2
 62
     8
420
  8421504
 60
     1
370
    -3
100
AcDbLine
 10
-3043.397604749003
 20
-63.37326639482825
 30
0.0
 11
-3043.415644013769
 21
-63.40451131793242
 31
0.0
  0
LINE
  5
C7
330
1F
100
AcDbEntity
  8
Generic Sections
  6
Continuous2
 62
     8
420
  8421504
 60
     1
370
    -3
100
AcDbLine
 10
-3043.39760768015
 20
-63.37326131793242
 30
0.0
 11
-3043.379565484238
 21
-63.40451131793242
 31
0.0
  0
LINE
  5
C8
330
1F
100
AcDbEntity
  8
Generic Sections
  6
Continuous2
 62
     8
420
  8421504
 60
     1
370
    -3
100
AcDbLine
 10
-3043.33510768015
 20
-63.62326131793242
 30
0.0
 11
-3043.317065484238
 21
-63.59201131793242
 31
0.0
  0
LINE
  5
C9
330
1F
100
AcDbEntity
  8
Generic Sections
  6
Continuous2
 62
     8
420
  8421504
 60
     1
370
    -3
100
AcDbLine
 10
-3041.668701018227
 20
-63.38888131793254
 30
0.0
 11
-3041.614011018227
 21
-63.60764131793229
 31
0.0
  0
LINE
  5
CA
330
1F
100
AcDbEntity
  8
Generic Sections
  6
Continuous2
 62
     8
420
  8421504
 60
     1
370
    -3
100
AcDbLine
 10
-3041.898701018227
 20
-63.38888131793254
 30
0.0
 11
-3041.844011018227
 21
-63.60764131793229
 31
0.0
  0
LINE
  5
CB
330
1F
100
AcDbEntity
  8
Generic Sections
  6
Continuous2
 62
     8
420
  8421504
 60
     1
370
    -3
100
AcDbLine
 10
-3042.358701018227
 20
-63.38888131793254
 30
0.0
 11
-3042.304011018227
 21
-63.60764131793229
 31
0.0
  0
LINE
  5
CC
330
1F
100
AcDbEntity
  8
Generic Sections
  6
Continuous2
 62
     8
420
  8421504
 60
     1
370
    -3
100
AcDbLine
 10
-3042.588701018227
 20
-63.38888131793254
 30
0.0
 11
-3042.534011018227
 21
-63.60764131793229
 31
0.0
  0
LINE
  5
CD
330
1F
100
AcDbEntity
  8
Generic Sections
  6
Continuous2
 62
     8
420
  8421504
 60
     1
370
    -3
100
AcDbLine
 10
-3042.818701018227
 20
-63.38888131793254
 30
0.0
 11
-3042.764011018227
 21
-63.60764131793229
 31
0.0
  0
LINE
  5
CE
330
1F
100
AcDbEntity
  8
Generic Sections
  6
Continuous2
 62
     8
420
  8421504
 60
     1
370
    -3
100
AcDbLine
 10
-3041.787606018227
 20
-63.37326131793242
 30
0.0
 11
-3041.725106018227
 21
-63.62326131793242
 31
0.0
  0
LINE
  5
CF
330
1F
100
AcDbEntity
  8
Generic Sections
  6
Continuous2
 62
     8
420
  8421504
 60
     1
370
    -3
100
AcDbLine
 10
-3042.247606018227
 20
-63.37326131793242
 30
0.0
 11
-3042.185106018227
 21
-63.62326131793242
 31
0.0
  0
LINE
  5
D0
330
1F
100
AcDbEntity
  8
Generic Sections
  6
Continuous2
 62
     8
420
  8421504
 60
     1
370
    -3
100
AcDbLine
 10
-3042.477606018227
 20
-63.37326131793242
 30
0.0
 11
-3042.415106018227
 21
-63.62326131793242
 31
0.0
  0
LINE
  5
D1
330
1F
100
AcDbEntity
  8
Generic Sections
  6
Continuous2
 62
     8
420
  8421504
 60
     1
370
    -3
100
AcDbLine
 10
-3042.707606018227
 20
-63.37326131793242
 30
0.0
 11
-3042.645106018227
 21
-63.62326131793242
 31
0.0
  0
LINE
  5
D2
330
1F
100
AcDbEntity
  8
Generic Sections
  6
Continuous2
 62
     8
420
  8421504
 60
     1
370
    -3
100
AcDbLine
 10
-3042.937606018227
 20
-63.37326131793242
 30
0.0
 11
-3042.875106018227
 21
-63.62326131793242
 31
0.0
  0
LINE
  5
D3
330
1F
100
AcDbEntity
  8
Generic Sections
  6
Continuous2
 62
     8
420
  8421504
 60
     1
370
    -3
100
AcDbLine
 10
-3041.623037754472
 20
-63.59201131793242
 30
0.0
 11
-3041.707065484237
 21
-63.59201131793242
 31
0.0
  0
LINE
  5
D4
330
1F
100
AcDbEntity
  8
Generic Sections
  6
Continuous2
 62
     8
420
  8421504
 60
     1
370
    -3
100
AcDbLine
 10
-3043.269674248894
 20
-63.40451131793242
 30
0.0
 11
-3043.185644013769
 21
-63.40451131793242
 31
0.0
  0
LINE
  5
D5
330
1F
100
AcDbEntity
  8
Generic Sections
  6
Continuous2
 62
     8
420
  8421504
 60
     1
370
    -3
100
AcDbLine
 10
-3043.003037754472
 20
-63.59201131793242
 30
0.0
 11
-3043.087065484237
 21
-63.59201131793242
 31
0.0
  0
LINE
  5
D6
330
1F
100
AcDbEntity
  8
Generic Sections
  6
Continuous2
 62
     8
420
  8421504
 60
     1
370
    -3
100
AcDbLine
 10
-3042.919565484238
 20
-63.40451131793242
 30
0.0
 11
-3042.827725254472
 21
-63.40451131793242
 31
0.0
  0
LINE
  5
D7
330
1F
100
AcDbEntity
  8
Generic Sections
  6
Continuous2
 62
     8
420
  8421504
 60
     1
370
    -3
100
AcDbLine
 10
-3042.893149876062
 20
-63.59201131793242
 30
0.0
 11
-3042.984986748894
 21
-63.59201131793242
 31
0.0
  0
LINE
  5
D8
330
1F
100
AcDbEntity
  8
Generic Sections
  6
Continuous2
 62
     8
420
  8421504
 60
     1
370
    -3
100
AcDbLine
 10
-3042.773037754472
 20
-63.59201131793242
 30
0.0
 11
-3042.857065484238
 21
-63.59201131793242
 31
0.0
  0
LINE
  5
D9
330
1F
100
AcDbEntity
  8
Generic Sections
  6
Continuous2
 62
     8
420
  8421504
 60
     1
370
    -3
100
AcDbLine
 10
-3042.809674248894
 20
-63.40451131793242
 30
0.0
 11
-3042.725644013769
 21
-63.40451131793242
 31
0.0
  0
LINE
  5
DA
330
1F
100
AcDbEntity
  8
Generic Sections
  6
Continuous2
 62
     8
420
  8421504
 60
     1
370
    -3
100
AcDbLine
 10
-3042.689565484237
 20
-63.40451131793242
 30
0.0
 11
-3042.597725254472
 21
-63.40451131793242
 31
0.0
  0
LINE
  5
DB
330
1F
100
AcDbEntity
  8
Generic Sections
  6
Continuous2
 62
     8
420
  8421504
 60
     1
370
    -3
100
AcDbLine
 10
-3042.663149876062
 20
-63.59201131793242
 30
0.0
 11
-3042.754986748894
 21
-63.59201131793242
 31
0.0
  0
LINE
  5
DC
330
1F
100
AcDbEntity
  8
Generic Sections
  6
Continuous2
 62
     8
420
  8421504
 60
     1
370
    -3
100
AcDbLine
 10
-3042.579674248894
 20
-63.40451131793242
 30
0.0
 11
-3042.495644013769
 21
-63.40451131793242
 31
0.0
  0
LINE
  5
DD
330
1F
100
AcDbEntity
  8
Generic Sections
  6
Continuous2
 62
     8
420
  8421504
 60
     1
370
    -3
100
AcDbLine
 10
-3042.543037754472
 20
-63.59201131793242
 30
0.0
 11
-3042.627065484237
 21
-63.59201131793242
 31
0.0
  0
LINE
  5
DE
330
1F
100
AcDbEntity
  8
Generic Sections
  6
Continuous2
 62
     8
420
  8421504
 60
     1
370
    -3
100
AcDbLine
 10
-3042.459565484238
 20
-63.40451131793242
 30
0.0
 11
-3042.367725254472
 21
-63.40451131793242
 31
0.0
  0
LINE
  5
DF
330
1F
100
AcDbEntity
  8
Generic Sections
  6
Continuous2
 62
     8
420
  8421504
 60
     1
370
    -3
100
AcDbLine
 10
-3042.349674248894
 20
-63.40451131793242
 30
0.0
 11
-3042.265644013769
 21
-63.40451131793242
 31
0.0
  0
LINE
  5
E0
330
1F
100
AcDbEntity
  8
Generic Sections
  6
Continuous2
 62
     8
420
  8421504
 60
     1
370
    -3
100
AcDbLine
 10
-3042.313037754472
 20
-63.59201131793242
 30
0.0
 11
-3042.397065484238
 21
-63.59201131793242
 31
0.0
  0
LINE
  5
E1
330
1F
100
AcDbEntity
  8
Generic Sections
  6
Continuous2
 62
     8
420
  8421504
 60
     1
370
    -3
100
AcDbLine
 10
-3042.203149876062
 20
-63.59201131793242
 30
0.0
 11
-3042.294986748894
 21
-63.59201131793242
 31
0.0
  0
LINE
  5
E2
330
1F
100
AcDbEntity
  8
Generic Sections
  6
Continuous2
 62
     8
420
  8421504
 60
     1
370
    -3
100
AcDbLine
 10
-3042.229565484237
 20
-63.40451131793242
 30
0.0
 11
-3042.137725254472
 21
-63.40451131793242
 31
0.0
  0
LINE
  5
E3
330
1F
100
AcDbEntity
  8
Generic Sections
  6
Continuous2
 62
     8
420
  8421504
 60
     1
370
    -3
100
AcDbLine
 10
-3043.460106018227
 20
-63.40451131793242
 30
0.0
 11
-3043.415644013769
 21
-63.40451131793242
 31
0.0
  0
LINE
  5
E4
330
1F
100
AcDbEntity
  8
Generic Sections
  6
Continuous2
 62
     8
420
  8421504
 60
     1
370
    -3
100
AcDbLine
 10
-3042.083037754472
 20
-63.59201131793242
 30
0.0
 11
-3042.167065484237
 21
-63.59201131793242
 31
0.0
  0
LINE
  5
E5
330
1F
100
AcDbEntity
  8
Generic Sections
  6
Continuous2
 62
     8
420
  8421504
 60
     1
370
    -3
100
AcDbLine
 10
-3041.907725254472
 20
-63.40451131793242
 30
0.0
 11
-3041.999565484238
 21
-63.40451131793242
 31
0.0
  0
LINE
  5
E6
330
1F
100
AcDbEntity
  8
Generic Sections
  6
Continuous2
 62
     8
420
  8421504
 60
     1
370
    -3
100
AcDbLine
 10
-3041.769565484237
 20
-63.40451131793242
 30
0.0
 11
-3041.677725254472
 21
-63.40451131793242
 31
0.0
  0
LINE
  5
E7
330
1F
100
AcDbEntity
  8
Generic Sections
  6
Continuous2
 62
     8
420
  8421504
 60
     1
370
    -3
100
AcDbLine
 10
-3041.659674248894
 20
-63.40451131793242
 30
0.0
 11
-3041.575644013769
 21
-63.40451131793242
 31
0.0
  0
LINE
  5
E8
330
1F
100
AcDbEntity
  8
Generic Sections
  6
Continuous2
 62
     8
420
  8421504
 60
     1
370
    -3
100
AcDbLine
 10
-3041.522606018227
 20
-63.59201131793242
 30
0.0
 11
-3041.604986748894
 21
-63.59201131793242
 31
0.0
  0
LINE
  5
E9
330
1F
100
AcDbEntity
  8
Generic Sections
  6
Continuous2
 62
     8
420
  8421504
 60
     1
370
    -3
100
AcDbLine
 10
-3041.539565484238
 20
-63.40451131793242
 30
0.0
 11
-3041.522606018227
 21
-63.40451131793242
 31
0.0
  0
LINE
  5
EA
330
1F
100
AcDbEntity
  8
Generic Sections
  6
Continuous2
 62
     8
420
  8421504
 60
     1
370
    -3
100
AcDbLine
 10
-3041.514545931464
 20
-63.58959327904421
 30
0.0
 11
-3041.522606018227
 21
-63.59201131793242
 31
0.0
  0
LINE
  5
EB
330
1F
100
AcDbEntity
  8
Generic Sections
  6
Continuous2
 62
     8
420
  8421504
 60
     1
370
    -3
100
AcDbLine
 10
-3041.49510768015
 20
-63.62326131793242
 30
0.0
 11
-3041.514545931464
 21
-63.58959327904421
 31
0.0
  0
LINE
  5
EC
330
1F
100
AcDbEntity
  8
Generic Sections
  6
Continuous2
 62
     8
420
  8421504
 60
     1
370
    -3
100
AcDbLine
 10
-3041.49510768015
 20
-63.62326131793242
 30
0.0
 11
-3041.4675251467
 21
-63.57548696859493
 31
0.0
  0
LINE
  5
ED
330
1F
100
AcDbEntity
  8
Generic Sections
  6
Continuous2
 62
     8
420
  8421504
 60
     1
370
    -3
100
AcDbLine
 10
-3041.557604749003
 20
-63.37326639482825
 30
0.0
 11
-3041.575644013769
 21
-63.40451131793242
 31
0.0
  0
LINE
  5
EE
330
1F
100
AcDbEntity
  8
Generic Sections
  6
Continuous2
 62
     8
420
  8421504
 60
     1
370
    -3
100
AcDbLine
 10
-3041.55760768015
 20
-63.37326131793242
 30
0.0
 11
-3041.539565484238
 21
-63.40451131793242
 31
0.0
  0
LINE
  5
EF
330
1F
100
AcDbEntity
  8
Generic Sections
  6
Continuous2
 62
     8
420
  8421504
 60
     1
370
    -3
100
AcDbLine
 10
-3041.725107680149
 20
-63.62326131793242
 30
0.0
 11
-3041.707065484237
 21
-63.59201131793242
 31
0.0
  0
LINE
  5
F0
330
1F
100
AcDbEntity
  8
Generic Sections
  6
Continuous2
 62
     8
420
  8421504
 60
     1
370
    -3
100
AcDbLine
 10
-3041.844012251683
 20
-63.60764394732695
 30
0.0
 11
-3041.834986748894
 21
-63.59201131793242
 31
0.0
  0
LINE
  5
F1
330
1F
100
AcDbEntity
  8
Generic Sections
  6
Continuous2
 62
     8
420
  8421504
 60
     1
370
    -3
100
AcDbLine
 10
-3041.95510768015
 20
-63.62326131793242
 30
0.0
 11
-3041.937065484238
 21
-63.59201131793242
 31
0.0
  0
LINE
  5
F2
330
1F
100
AcDbEntity
  8
Generic Sections
  6
Continuous2
 62
     8
420
  8421504
 60
     1
370
    -3
100
AcDbLine
 10
-3041.898699751683
 20
-63.38887868853789
 30
0.0
 11
-3041.907725254472
 21
-63.40451131793242
 31
0.0
  0
LINE
  5
F3
330
1F
100
AcDbEntity
  8
Generic Sections
  6
Continuous2
 62
     8
420
  8421504
 60
     1
370
    -3
100
AcDbLine
 10
-3041.898699751683
 20
-63.38887868853789
 30
0.0
 11
-3041.889674248894
 21
-63.40451131793242
 31
0.0
  0
LINE
  5
F4
330
1F
100
AcDbEntity
  8
Generic Sections
  6
Continuous2
 62
     8
420
  8421504
 60
     1
370
    -3
100
AcDbLine
 10
-3042.185107680149
 20
-63.62326131793242
 30
0.0
 11
-3042.203149876062
 21
-63.59201131793242
 31
0.0
  0
LINE
  5
F5
330
1F
100
AcDbEntity
  8
Generic Sections
  6
Continuous2
 62
     8
420
  8421504
 60
     1
370
    -3
100
AcDbLine
 10
-3042.247604749004
 20
-63.37326639482825
 30
0.0
 11
-3042.265644013769
 21
-63.40451131793242
 31
0.0
  0
LINE
  5
F6
330
1F
100
AcDbEntity
  8
Generic Sections
  6
Continuous2
 62
     8
420
  8421504
 60
     1
370
    -3
100
AcDbLine
 10
-3042.41510768015
 20
-63.62326131793242
 30
0.0
 11
-3042.397065484238
 21
-63.59201131793242
 31
0.0
  0
LINE
  5
F7
330
1F
100
AcDbEntity
  8
Generic Sections
  6
Continuous2
 62
     8
420
  8421504
 60
     1
370
    -3
100
AcDbLine
 10
-3042.358699751683
 20
-63.38887868853789
 30
0.0
 11
-3042.367725254472
 21
-63.40451131793242
 31
0.0
  0
LINE
  5
F8
330
1F
100
AcDbEntity
  8
Generic Sections
  6
Continuous2
 62
     8
420
  8421504
 60
     1
370
    -3
100
AcDbLine
 10
-3042.534012251683
 20
-63.60764394732695
 30
0.0
 11
-3042.524986748894
 21
-63.59201131793242
 31
0.0
  0
LINE
  5
F9
330
1F
100
AcDbEntity
  8
Generic Sections
  6
Continuous2
 62
     8
420
  8421504
 60
     1
370
    -3
100
AcDbLine
 10
-3042.534012251683
 20
-63.60764394732695
 30
0.0
 11
-3042.543037754472
 21
-63.59201131793242
 31
0.0
  0
LINE
  5
FA
330
1F
100
AcDbEntity
  8
Generic Sections
  6
Continuous2
 62
     8
420
  8421504
 60
     1
370
    -3
100
AcDbLine
 10
-3042.64510768015
 20
-63.62326131793242
 30
0.0
 11
-3042.663149876062
 21
-63.59201131793242
 31
0.0
  0
LINE
  5
FB
330
1F
100
AcDbEntity
  8
Generic Sections
  6
Continuous2
 62
     8
420
  8421504
 60
     1
370
    -3
100
AcDbLine
 10
-3042.64510768015
 20
-63.62326131793242
 30
0.0
 11
-3042.627065484237
 21
-63.59201131793242
 31
0.0
  0
LINE
  5
FC
330
1F
100
AcDbEntity
  8
Generic Sections
  6
Continuous2
 62
     8
420
  8421504
 60
     1
370
    -3
100
AcDbLine
 10
-3042.707604749004
 20
-63.37326639482825
 30
0.0
 11
-3042.725644013769
 21
-63.40451131793242
 31
0.0
  0
LINE
  5
FD
330
1F
100
AcDbEntity
  8
Generic Sections
  6
Continuous2
 62
     8
420
  8421504
 60
     1
370
    -3
100
AcDbLine
 10
-3042.70760768015
 20
-63.37326131793242
 30
0.0
 11
-3042.689565484237
 21
-63.40451131793242
 31
0.0
  0
LINE
  5
FE
330
1F
100
AcDbEntity
  8
Generic Sections
  6
Continuous2
 62
     8
420
  8421504
 60
     1
370
    -3
100
AcDbLine
 10
-3042.937604749003
 20
-63.37326639482825
 30
0.0
 11
-3042.955644013769
 21
-63.40451131793242
 31
0.0
  0
LINE
  5
FF
330
1F
100
AcDbEntity
  8
Generic Sections
  6
Continuous2
 62
     8
420
  8421504
 60
     1
370
    -3
100
AcDbLine
 10
-3042.994012251683
 20
-63.60764394732695
 30
0.0
 11
-3042.984986748894
 21
-63.59201131793242
 31
0.0
  0
LINE
  5
100
330
1F
100
AcDbEntity
  8
Generic Sections
  6
Continuous2
 62
     8
420
  8421504
 60
     1
370
    -3
100
AcDbLine
 10
-3042.994012251683
 20
-63.60764394732695
 30
0.0
 11
-3043.003037754472
 21
-63.59201131793242
 31
0.0
  0
LINE
  5
101
330
1F
100
AcDbEntity
  8
Generic Sections
  6
Continuous2
 62
     8
420
  8421504
 60
     1
370
    -3
100
AcDbLine
 10
-3043.10510768015
 20
-63.62326131793242
 30
0.0
 11
-3043.087065484237
 21
-63.59201131793242
 31
0.0
  0
LINE
  5
102
330
1F
100
AcDbEntity
  8
Generic Sections
  6
Continuous2
 62
     8
420
  8421504
 60
     1
370
    -3
100
AcDbLine
 10
-3043.167604749004
 20
-63.37326639482825
 30
0.0
 11
-3043.185644013769
 21
-63.40451131793242
 31
0.0
  0
LINE
  5
103
330
1F
100
AcDbEntity
  8
Generic Sections
  6
Continuous2
 62
     8
420
  8421504
 60
     1
370
    -3
100
AcDbLine
 10
-3043.048699751683
 20
-63.38887868853789
 30
0.0
 11
-3043.039674248894
 21
-63.40451131793242
 31
0.0
  0
LINE
  5
104
330
1F
100
AcDbEntity
  8
Generic Sections
  6
Continuous2
 62
     8
420
  8421504
 60
     1
370
    -3
100
AcDbLine
 10
-3043.278699751683
 20
-63.38887868853789
 30
0.0
 11
-3043.287725254472
 21
-63.40451131793242
 31
0.0
  0
LINE
  5
105
330
1F
100
AcDbEntity
  8
Generic Sections
  6
Continuous2
 62
     8
420
  8421504
 60
     1
370
    -3
100
AcDbLine
 10
-3043.278699751683
 20
-63.38887868853789
 30
0.0
 11
-3043.269674248894
 21
-63.40451131793242
 31
0.0
  0
LINE
  5
106
330
1F
100
AcDbEntity
  8
Generic Sections
  6
Continuous2
 62
     8
420
  8421504
 60
     1
370
    -3
100
AcDbLine
 10
-3043.224012251683
 20
-63.60764394732695
 30
0.0
 11
-3043.214986748894
 21
-63.59201131793242
 31
0.0
  0
LINE
  5
107
330
1F
100
AcDbEntity
  8
Generic Sections
  6
Continuous2
 62
     8
420
  8421504
 60
     1
370
    -3
100
AcDbLine
 10
-3042.128701018227
 20
-63.38888131793254
 30
0.0
 11
-3042.074011018227
 21
-63.60764131793229
 31
0.0
  0
LINE
  5
108
330
1F
100
AcDbEntity
  8
Generic Sections
  6
Continuous2
 62
     8
420
  8421504
 60
     1
370
    -3
100
AcDbLine
 10
-3043.048701018227
 20
-63.38888131793254
 30
0.0
 11
-3042.994011018227
 21
-63.60764131793229
 31
0.0
  0
LINE
  5
109
330
1F
100
AcDbEntity
  8
Generic Sections
  6
Continuous2
 62
     8
420
  8421504
 60
     1
370
    -3
100
AcDbLine
 10
-3043.278701018227
 20
-63.38888131793254
 30
0.0
 11
-3043.224011018227
 21
-63.60764131793229
 31
0.0
  0
LINE
  5
10A
330
1F
100
AcDbEntity
  8
Generic Sections
  6
Continuous2
 62
     8
420
  8421504
 60
     1
370
    -3
100
AcDbLine
 10
-3041.557606018227
 20
-63.37326131793242
 30
0.0
 11
-3041.495106018227
 21
-63.62326131793242
 31
0.0
  0
LINE
  5
10B
330
1F
100
AcDbEntity
  8
Generic Sections
  6
Continuous2
 62
     8
420
  8421504
 60
     1
370
    -3
100
AcDbLine
 10
-3042.017606018227
 20
-63.37326131793242
 30
0.0
 11
-3041.955106018227
 21
-63.62326131793242
 31
0.0
  0
LINE
  5
10C
330
1F
100
AcDbEntity
  8
Generic Sections
  6
Continuous2
 62
     8
420
  8421504
 60
     1
370
    -3
100
AcDbLine
 10
-3043.167606018227
 20
-63.37326131793242
 30
0.0
 11
-3043.105106018227
 21
-63.62326131793242
 31
0.0
  0
LINE
  5
10D
330
1F
100
AcDbEntity
  8
Generic Sections
  6
Continuous2
 62
     8
420
  8421504
 60
     1
370
    -3
100
AcDbLine
 10
-3043.397606018227
 20
-63.37326131793242
 30
0.0
 11
-3043.335106018227
 21
-63.62326131793242
 31
0.0
  0
LINE
  5
10E
330
1F
100
AcDbEntity
  8
Generic Sections
  6
Continuous2
 62
     8
420
  8421504
 60
     1
370
    -3
100
AcDbLine
 10
-3041.21010768015
 20
-63.49826131793242
 30
0.0
 11
-3041.4675251467
 21
-63.57548696859493
 31
0.0
  0
LINE
  5
10F
330
1F
100
AcDbEntity
  8
Generic Sections
  6
Continuous2
 62
     8
420
  8421504
 60
     1
370
    -3
100
AcDbLine
 10
-3041.522606018227
 20
-63.40451131793242
 30
0.0
 11
-3041.21010768015
 21
-63.49826131793242
 31
0.0
  0
LINE
  5
110
330
1F
100
AcDbEntity
  8
Generic Sections
  6
Continuous2
 62
     8
420
  8421504
 60
     1
370
    -3
100
AcDbLine
 10
-3042.119674248894
 20
-63.40451131793242
 30
0.0
 11
-3042.035644013769
 21
-63.40451131793242
 31
0.0
  0
LINE
  5
111
330
1F
100
AcDbEntity
  8
Generic Sections
  6
Continuous2
 62
     8
420
  8421504
 60
     1
370
    -3
100
AcDbLine
 10
-3081.383194719037
 20
-63.4045113179307
 30
0.0
 11
-3082.50447814716
 21
-63.40451131793252
 31
0.0
  0
LINE
  5
112
330
1F
100
AcDbEntity
  8
Generic Sections
  6
Continuous2
 62
     8
420
  8421504
 60
     1
370
    -3
100
AcDbLine
 10
-3081.38321092658
 20
-63.59201131793252
 30
0.0
 11
-3082.441984009452
 21
-63.5920113179307
 31
0.0
  0
LINE
  5
113
330
1F
100
AcDbEntity
  8
Generic Sections
  6
Continuous2
 62
     8
420
  8421504
 60
     1
370
    -3
100
AcDbLine
 10
-3082.228062538984
 20
-63.5920113179324
 30
0.0
 11
-3082.31990276875
 21
-63.5920113179324
 31
0.0
  0
LINE
  5
114
330
1F
100
AcDbEntity
  8
Generic Sections
  6
Continuous2
 62
     8
420
  8421504
 60
     1
370
    -3
100
AcDbLine
 10
-3082.147522004995
 20
-63.4045113179324
 30
0.0
 11
-3082.25447814716
 21
-63.4045113179324
 31
0.0
  0
LINE
  5
115
330
1F
100
AcDbEntity
  8
Generic Sections
  6
Continuous2
 62
     8
420
  8421504
 60
     1
370
    -3
100
AcDbLine
 10
-3082.290562538984
 20
-63.4045113179324
 30
0.0
 11
-3082.37459026875
 21
-63.4045113179324
 31
0.0
  0
LINE
  5
116
330
1F
100
AcDbEntity
  8
Generic Sections
  6
Continuous2
 62
     8
420
  8421504
 60
     1
370
    -3
100
AcDbLine
 10
-3082.458062538984
 20
-63.5920113179324
 30
0.0
 11
-3082.54990276875
 21
-63.5920113179324
 31
0.0
  0
LINE
  5
117
330
1F
100
AcDbEntity
  8
Generic Sections
  6
Continuous2
 62
     8
420
  8421504
 60
     1
370
    -3
100
AcDbLine
 10
-3082.48447814716
 20
-63.4045113179324
 30
0.0
 11
-3082.392641274328
 21
-63.4045113179324
 31
0.0
  0
LINE
  5
118
330
1F
100
AcDbEntity
  8
Generic Sections
  6
Continuous2
 62
     8
420
  8421504
 60
     1
370
    -3
100
AcDbLine
 10
-3082.567953774328
 20
-63.5920113179324
 30
0.0
 11
-3082.651984009452
 21
-63.5920113179324
 31
0.0
  0
LINE
  5
119
330
1F
100
AcDbEntity
  8
Generic Sections
  6
Continuous2
 62
     8
420
  8421504
 60
     1
370
    -3
100
AcDbLine
 10
-3083.17447814716
 20
-63.4045113179324
 30
0.0
 11
-3083.082641274328
 21
-63.4045113179324
 31
0.0
  0
LINE
  5
11A
330
1F
100
AcDbEntity
  8
Generic Sections
  6
Continuous2
 62
     8
420
  8421504
 60
     1
370
    -3
100
AcDbLine
 10
-3083.63447814716
 20
-63.4045113179324
 30
0.0
 11
-3083.542641274328
 21
-63.4045113179324
 31
0.0
  0
LINE
  5
11B
330
1F
100
AcDbEntity
  8
Generic Sections
  6
Continuous2
 62
     8
420
  8421504
 60
     1
370
    -3
100
AcDbLine
 10
-3083.717953774328
 20
-63.5920113179324
 30
0.0
 11
-3083.801984009453
 21
-63.5920113179324
 31
0.0
  0
LINE
  5
11C
330
1F
100
AcDbEntity
  8
Generic Sections
  6
Continuous2
 62
     8
420
  8421504
 60
     1
370
    -3
100
AcDbLine
 10
-3083.75459026875
 20
-63.4045113179324
 30
0.0
 11
-3083.670562538984
 21
-63.4045113179324
 31
0.0
  0
LINE
  5
11D
330
1F
100
AcDbEntity
  8
Generic Sections
  6
Continuous2
 62
     8
420
  8421504
 60
     1
370
    -3
100
AcDbLine
 10
-3083.86447814716
 20
-63.4045113179324
 30
0.0
 11
-3083.772641274328
 21
-63.4045113179324
 31
0.0
  0
LINE
  5
11E
330
1F
100
AcDbEntity
  8
Generic Sections
  6
Continuous2
 62
     8
420
  8421504
 60
     1
370
    -3
100
AcDbLine
 10
-3083.993615771539
 20
-63.38887868853787
 30
0.0
 11
-3084.002641274328
 21
-63.4045113179324
 31
0.0
  0
LINE
  5
11F
330
1F
100
AcDbEntity
  8
Generic Sections
  6
Continuous2
 62
     8
420
  8421504
 60
     1
370
    -3
100
AcDbLine
 10
-3083.993615771539
 20
-63.38887868853787
 30
0.0
 11
-3083.98459026875
 21
-63.4045113179324
 31
0.0
  0
LINE
  5
120
330
1F
100
AcDbEntity
  8
Generic Sections
  6
Continuous2
 62
     8
420
  8421504
 60
     1
370
    -3
100
AcDbLine
 10
-3083.882520343072
 20
-63.3732613179324
 30
0.0
 11
-3083.86447814716
 21
-63.4045113179324
 31
0.0
  0
LINE
  5
121
330
1F
100
AcDbEntity
  8
Generic Sections
  6
Continuous2
 62
     8
420
  8421504
 60
     1
370
    -3
100
AcDbLine
 10
-3083.820023274218
 20
-63.62325624103657
 30
0.0
 11
-3083.801984009453
 21
-63.5920113179324
 31
0.0
  0
LINE
  5
122
330
1F
100
AcDbEntity
  8
Generic Sections
  6
Continuous2
 62
     8
420
  8421504
 60
     1
370
    -3
100
AcDbLine
 10
-3083.820020343072
 20
-63.6232613179324
 30
0.0
 11
-3083.838062538985
 21
-63.5920113179324
 31
0.0
  0
LINE
  5
123
330
1F
100
AcDbEntity
  8
Generic Sections
  6
Continuous2
 62
     8
420
  8421504
 60
     1
370
    -3
100
AcDbLine
 10
-3083.938928271539
 20
-63.60764394732693
 30
0.0
 11
-3083.92990276875
 21
-63.5920113179324
 31
0.0
  0
LINE
  5
124
330
1F
100
AcDbEntity
  8
Generic Sections
  6
Continuous2
 62
     8
420
  8421504
 60
     1
370
    -3
100
AcDbLine
 10
-3083.938928271539
 20
-63.60764394732693
 30
0.0
 11
-3083.947953774328
 21
-63.5920113179324
 31
0.0
  0
LINE
  5
125
330
1F
100
AcDbEntity
  8
Generic Sections
  6
Continuous2
 62
     8
420
  8421504
 60
     1
370
    -3
100
AcDbLine
 10
-3083.763615771539
 20
-63.38887868853787
 30
0.0
 11
-3083.75459026875
 21
-63.4045113179324
 31
0.0
  0
LINE
  5
126
330
1F
100
AcDbEntity
  8
Generic Sections
  6
Continuous2
 62
     8
420
  8421504
 60
     1
370
    -3
100
AcDbLine
 10
-3083.652520343072
 20
-63.3732613179324
 30
0.0
 11
-3083.63447814716
 21
-63.4045113179324
 31
0.0
  0
LINE
  5
127
330
1F
100
AcDbEntity
  8
Generic Sections
  6
Continuous2
 62
     8
420
  8421504
 60
     1
370
    -3
100
AcDbLine
 10
-3083.590023274219
 20
-63.62325624103657
 30
0.0
 11
-3083.571984009453
 21
-63.5920113179324
 31
0.0
  0
LINE
  5
128
330
1F
100
AcDbEntity
  8
Generic Sections
  6
Continuous2
 62
     8
420
  8421504
 60
     1
370
    -3
100
AcDbLine
 10
-3083.590020343072
 20
-63.6232613179324
 30
0.0
 11
-3083.608062538984
 21
-63.5920113179324
 31
0.0
  0
LINE
  5
129
330
1F
100
AcDbEntity
  8
Generic Sections
  6
Continuous2
 62
     8
420
  8421504
 60
     1
370
    -3
100
AcDbLine
 10
-3083.533615771539
 20
-63.38887868853787
 30
0.0
 11
-3083.542641274328
 21
-63.4045113179324
 31
0.0
  0
LINE
  5
12A
330
1F
100
AcDbEntity
  8
Generic Sections
  6
Continuous2
 62
     8
420
  8421504
 60
     1
370
    -3
100
AcDbLine
 10
-3083.533615771539
 20
-63.38887868853787
 30
0.0
 11
-3083.52459026875
 21
-63.4045113179324
 31
0.0
  0
LINE
  5
12B
330
1F
100
AcDbEntity
  8
Generic Sections
  6
Continuous2
 62
     8
420
  8421504
 60
     1
370
    -3
100
AcDbLine
 10
-3083.422520343072
 20
-63.3732613179324
 30
0.0
 11
-3083.440562538985
 21
-63.4045113179324
 31
0.0
  0
LINE
  5
12C
330
1F
100
AcDbEntity
  8
Generic Sections
  6
Continuous2
 62
     8
420
  8421504
 60
     1
370
    -3
100
AcDbLine
 10
-3083.360020343072
 20
-63.6232613179324
 30
0.0
 11
-3083.378062538985
 21
-63.5920113179324
 31
0.0
  0
LINE
  5
12D
330
1F
100
AcDbEntity
  8
Generic Sections
  6
Continuous2
 62
     8
420
  8421504
 60
     1
370
    -3
100
AcDbLine
 10
-3083.478928271539
 20
-63.60764394732693
 30
0.0
 11
-3083.46990276875
 21
-63.5920113179324
 31
0.0
  0
LINE
  5
12E
330
1F
100
AcDbEntity
  8
Generic Sections
  6
Continuous2
 62
     8
420
  8421504
 60
     1
370
    -3
100
AcDbLine
 10
-3083.478928271539
 20
-63.60764394732693
 30
0.0
 11
-3083.487953774328
 21
-63.5920113179324
 31
0.0
  0
LINE
  5
12F
330
1F
100
AcDbEntity
  8
Generic Sections
  6
Continuous2
 62
     8
420
  8421504
 60
     1
370
    -3
100
AcDbLine
 10
-3083.303615771539
 20
-63.38887868853787
 30
0.0
 11
-3083.312641274328
 21
-63.4045113179324
 31
0.0
  0
LINE
  5
130
330
1F
100
AcDbEntity
  8
Generic Sections
  6
Continuous2
 62
     8
420
  8421504
 60
     1
370
    -3
100
AcDbLine
 10
-3083.303615771539
 20
-63.38887868853787
 30
0.0
 11
-3083.29459026875
 21
-63.4045113179324
 31
0.0
  0
LINE
  5
131
330
1F
100
AcDbEntity
  8
Generic Sections
  6
Continuous2
 62
     8
420
  8421504
 60
     1
370
    -3
100
AcDbLine
 10
-3083.192520343072
 20
-63.3732613179324
 30
0.0
 11
-3083.17447814716
 21
-63.4045113179324
 31
0.0
  0
LINE
  5
132
330
1F
100
AcDbEntity
  8
Generic Sections
  6
Continuous2
 62
     8
420
  8421504
 60
     1
370
    -3
100
AcDbLine
 10
-3083.130023274219
 20
-63.62325624103657
 30
0.0
 11
-3083.111984009452
 21
-63.5920113179324
 31
0.0
  0
LINE
  5
133
330
1F
100
AcDbEntity
  8
Generic Sections
  6
Continuous2
 62
     8
420
  8421504
 60
     1
370
    -3
100
AcDbLine
 10
-3083.130020343072
 20
-63.6232613179324
 30
0.0
 11
-3083.148062538984
 21
-63.5920113179324
 31
0.0
  0
LINE
  5
134
330
1F
100
AcDbEntity
  8
Generic Sections
  6
Continuous2
 62
     8
420
  8421504
 60
     1
370
    -3
100
AcDbLine
 10
-3083.248928271539
 20
-63.60764394732693
 30
0.0
 11
-3083.257953774328
 21
-63.5920113179324
 31
0.0
  0
LINE
  5
135
330
1F
100
AcDbEntity
  8
Generic Sections
  6
Continuous2
 62
     8
420
  8421504
 60
     1
370
    -3
100
AcDbLine
 10
-3083.018928271539
 20
-63.60764394732693
 30
0.0
 11
-3083.00990276875
 21
-63.5920113179324
 31
0.0
  0
LINE
  5
136
330
1F
100
AcDbEntity
  8
Generic Sections
  6
Continuous2
 62
     8
420
  8421504
 60
     1
370
    -3
100
AcDbLine
 10
-3083.018928271539
 20
-63.60764394732693
 30
0.0
 11
-3083.027953774328
 21
-63.5920113179324
 31
0.0
  0
LINE
  5
137
330
1F
100
AcDbEntity
  8
Generic Sections
  6
Continuous2
 62
     8
420
  8421504
 60
     1
370
    -3
100
AcDbLine
 10
-3082.843615771539
 20
-63.38887868853787
 30
0.0
 11
-3082.852641274328
 21
-63.4045113179324
 31
0.0
  0
LINE
  5
138
330
1F
100
AcDbEntity
  8
Generic Sections
  6
Continuous2
 62
     8
420
  8421504
 60
     1
370
    -3
100
AcDbLine
 10
-3082.843615771539
 20
-63.38887868853787
 30
0.0
 11
-3082.83459026875
 21
-63.4045113179324
 31
0.0
  0
LINE
  5
139
330
1F
100
AcDbEntity
  8
Generic Sections
  6
Continuous2
 62
     8
420
  8421504
 60
     1
370
    -3
100
AcDbLine
 10
-3082.732520343072
 20
-63.3732613179324
 30
0.0
 11
-3082.71447814716
 21
-63.4045113179324
 31
0.0
  0
LINE
  5
13A
330
1F
100
AcDbEntity
  8
Generic Sections
  6
Continuous2
 62
     8
420
  8421504
 60
     1
370
    -3
100
AcDbLine
 10
-3082.732520343072
 20
-63.3732613179324
 30
0.0
 11
-3082.750562538984
 21
-63.4045113179324
 31
0.0
  0
LINE
  5
13B
330
1F
100
AcDbEntity
  8
Generic Sections
  6
Continuous2
 62
     8
420
  8421504
 60
     1
370
    -3
100
AcDbLine
 10
-3082.670020343072
 20
-63.6232613179324
 30
0.0
 11
-3082.688062538984
 21
-63.5920113179324
 31
0.0
  0
LINE
  5
13C
330
1F
100
AcDbEntity
  8
Generic Sections
  6
Continuous2
 62
     8
420
  8421504
 60
     1
370
    -3
100
AcDbLine
 10
-3082.788928271539
 20
-63.60764394732693
 30
0.0
 11
-3082.77990276875
 21
-63.5920113179324
 31
0.0
  0
LINE
  5
13D
330
1F
100
AcDbEntity
  8
Generic Sections
  6
Continuous2
 62
     8
420
  8421504
 60
     1
370
    -3
100
AcDbLine
 10
-3082.788928271539
 20
-63.60764394732693
 30
0.0
 11
-3082.797953774328
 21
-63.5920113179324
 31
0.0
  0
LINE
  5
13E
330
1F
100
AcDbEntity
  8
Generic Sections
  6
Continuous2
 62
     8
420
  8421504
 60
     1
370
    -3
100
AcDbLine
 10
-3082.502520343072
 20
-63.3732613179324
 30
0.0
 11
-3082.48447814716
 21
-63.4045113179324
 31
0.0
  0
LINE
  5
13F
330
1F
100
AcDbEntity
  8
Generic Sections
  6
Continuous2
 62
     8
420
  8421504
 60
     1
370
    -3
100
AcDbLine
 10
-3082.440020343072
 20
-63.6232613179324
 30
0.0
 11
-3082.458062538984
 21
-63.5920113179324
 31
0.0
  0
LINE
  5
140
330
1F
100
AcDbEntity
  8
Generic Sections
  6
Continuous2
 62
     8
420
  8421504
 60
     1
370
    -3
100
AcDbLine
 10
-3082.558928271539
 20
-63.60764394732693
 30
0.0
 11
-3082.54990276875
 21
-63.5920113179324
 31
0.0
  0
LINE
  5
141
330
1F
100
AcDbEntity
  8
Generic Sections
  6
Continuous2
 62
     8
420
  8421504
 60
     1
370
    -3
100
AcDbLine
 10
-3082.383615771539
 20
-63.38887868853787
 30
0.0
 11
-3082.37459026875
 21
-63.4045113179324
 31
0.0
  0
LINE
  5
142
330
1F
100
AcDbEntity
  8
Generic Sections
  6
Continuous2
 62
     8
420
  8421504
 60
     1
370
    -3
100
AcDbLine
 10
-3082.272520343072
 20
-63.3732613179324
 30
0.0
 11
-3082.25447814716
 21
-63.4045113179324
 31
0.0
  0
LINE
  5
143
330
1F
100
AcDbEntity
  8
Generic Sections
  6
Continuous2
 62
     8
420
  8421504
 60
     1
370
    -3
100
AcDbLine
 10
-3082.210023274219
 20
-63.62325624103657
 30
0.0
 11
-3082.191984009452
 21
-63.5920113179324
 31
0.0
  0
LINE
  5
144
330
1F
100
AcDbEntity
  8
Generic Sections
  6
Continuous2
 62
     8
420
  8421504
 60
     1
370
    -3
100
AcDbLine
 10
-3082.210020343072
 20
-63.6232613179324
 30
0.0
 11
-3082.228062538984
 21
-63.5920113179324
 31
0.0
  0
LINE
  5
145
330
1F
100
AcDbEntity
  8
Generic Sections
  6
Continuous2
 62
     8
420
  8421504
 60
     1
370
    -3
100
AcDbLine
 10
-3082.272520343072
 20
-63.3732613179324
 30
0.0
 11
-3082.290562538984
 21
-63.4045113179324
 31
0.0
  0
LINE
  5
146
330
1F
100
AcDbEntity
  8
Generic Sections
  6
Continuous2
 62
     8
420
  8421504
 60
     1
370
    -3
100
AcDbLine
 10
-3083.938927004995
 20
-63.60764131793228
 30
0.0
 11
-3083.993617004995
 21
-63.38888131793253
 31
0.0
  0
LINE
  5
147
330
1F
100
AcDbEntity
  8
Generic Sections
  6
Continuous2
 62
     8
420
  8421504
 60
     1
370
    -3
100
AcDbLine
 10
-3083.708927004995
 20
-63.60764131793228
 30
0.0
 11
-3083.763617004995
 21
-63.38888131793253
 31
0.0
  0
LINE
  5
148
330
1F
100
AcDbEntity
  8
Generic Sections
  6
Continuous2
 62
     8
420
  8421504
 60
     1
370
    -3
100
AcDbLine
 10
-3083.248927004995
 20
-63.60764131793228
 30
0.0
 11
-3083.303617004995
 21
-63.38888131793253
 31
0.0
  0
LINE
  5
149
330
1F
100
AcDbEntity
  8
Generic Sections
  6
Continuous2
 62
     8
420
  8421504
 60
     1
370
    -3
100
AcDbLine
 10
-3083.018927004995
 20
-63.60764131793228
 30
0.0
 11
-3083.073617004995
 21
-63.38888131793253
 31
0.0
  0
LINE
  5
14A
330
1F
100
AcDbEntity
  8
Generic Sections
  6
Continuous2
 62
     8
420
  8421504
 60
     1
370
    -3
100
AcDbLine
 10
-3082.788927004995
 20
-63.60764131793228
 30
0.0
 11
-3082.843617004994
 21
-63.38888131793253
 31
0.0
  0
LINE
  5
14B
330
1F
100
AcDbEntity
  8
Generic Sections
  6
Continuous2
 62
     8
420
  8421504
 60
     1
370
    -3
100
AcDbLine
 10
-3083.820022004995
 20
-63.6232613179324
 30
0.0
 11
-3083.882522004995
 21
-63.3732613179324
 31
0.0
  0
LINE
  5
14C
330
1F
100
AcDbEntity
  8
Generic Sections
  6
Continuous2
 62
     8
420
  8421504
 60
     1
370
    -3
100
AcDbLine
 10
-3083.360022004995
 20
-63.6232613179324
 30
0.0
 11
-3083.422522004995
 21
-63.3732613179324
 31
0.0
  0
LINE
  5
14D
330
1F
100
AcDbEntity
  8
Generic Sections
  6
Continuous2
 62
     8
420
  8421504
 60
     1
370
    -3
100
AcDbLine
 10
-3083.130022004995
 20
-63.6232613179324
 30
0.0
 11
-3083.192522004995
 21
-63.3732613179324
 31
0.0
  0
LINE
  5
14E
330
1F
100
AcDbEntity
  8
Generic Sections
  6
Continuous2
 62
     8
420
  8421504
 60
     1
370
    -3
100
AcDbLine
 10
-3082.900022004995
 20
-63.6232613179324
 30
0.0
 11
-3082.962522004995
 21
-63.3732613179324
 31
0.0
  0
LINE
  5
14F
330
1F
100
AcDbEntity
  8
Generic Sections
  6
Continuous2
 62
     8
420
  8421504
 60
     1
370
    -3
100
AcDbLine
 10
-3082.670022004995
 20
-63.6232613179324
 30
0.0
 11
-3082.732522004995
 21
-63.3732613179324
 31
0.0
  0
LINE
  5
150
330
1F
100
AcDbEntity
  8
Generic Sections
  6
Continuous2
 62
     8
420
  8421504
 60
     1
370
    -3
100
AcDbLine
 10
-3083.98459026875
 20
-63.4045113179324
 30
0.0
 11
-3083.900562538985
 21
-63.4045113179324
 31
0.0
  0
LINE
  5
151
330
1F
100
AcDbEntity
  8
Generic Sections
  6
Continuous2
 62
     8
420
  8421504
 60
     1
370
    -3
100
AcDbLine
 10
-3082.337953774328
 20
-63.5920113179324
 30
0.0
 11
-3082.421984009453
 21
-63.5920113179324
 31
0.0
  0
LINE
  5
152
330
1F
100
AcDbEntity
  8
Generic Sections
  6
Continuous2
 62
     8
420
  8421504
 60
     1
370
    -3
100
AcDbLine
 10
-3082.60459026875
 20
-63.4045113179324
 30
0.0
 11
-3082.520562538984
 21
-63.4045113179324
 31
0.0
  0
LINE
  5
153
330
1F
100
AcDbEntity
  8
Generic Sections
  6
Continuous2
 62
     8
420
  8421504
 60
     1
370
    -3
100
AcDbLine
 10
-3082.688062538984
 20
-63.5920113179324
 30
0.0
 11
-3082.77990276875
 21
-63.5920113179324
 31
0.0
  0
LINE
  5
154
330
1F
100
AcDbEntity
  8
Generic Sections
  6
Continuous2
 62
     8
420
  8421504
 60
     1
370
    -3
100
AcDbLine
 10
-3082.71447814716
 20
-63.4045113179324
 30
0.0
 11
-3082.622641274328
 21
-63.4045113179324
 31
0.0
  0
LINE
  5
155
330
1F
100
AcDbEntity
  8
Generic Sections
  6
Continuous2
 62
     8
420
  8421504
 60
     1
370
    -3
100
AcDbLine
 10
-3082.83459026875
 20
-63.4045113179324
 30
0.0
 11
-3082.750562538984
 21
-63.4045113179324
 31
0.0
  0
LINE
  5
156
330
1F
100
AcDbEntity
  8
Generic Sections
  6
Continuous2
 62
     8
420
  8421504
 60
     1
370
    -3
100
AcDbLine
 10
-3082.797953774328
 20
-63.5920113179324
 30
0.0
 11
-3082.881984009453
 21
-63.5920113179324
 31
0.0
  0
LINE
  5
157
330
1F
100
AcDbEntity
  8
Generic Sections
  6
Continuous2
 62
     8
420
  8421504
 60
     1
370
    -3
100
AcDbLine
 10
-3082.918062538984
 20
-63.5920113179324
 30
0.0
 11
-3083.00990276875
 21
-63.5920113179324
 31
0.0
  0
LINE
  5
158
330
1F
100
AcDbEntity
  8
Generic Sections
  6
Continuous2
 62
     8
420
  8421504
 60
     1
370
    -3
100
AcDbLine
 10
-3082.94447814716
 20
-63.4045113179324
 30
0.0
 11
-3082.852641274328
 21
-63.4045113179324
 31
0.0
  0
LINE
  5
159
330
1F
100
AcDbEntity
  8
Generic Sections
  6
Continuous2
 62
     8
420
  8421504
 60
     1
370
    -3
100
AcDbLine
 10
-3083.027953774328
 20
-63.5920113179324
 30
0.0
 11
-3083.111984009452
 21
-63.5920113179324
 31
0.0
  0
LINE
  5
15A
330
1F
100
AcDbEntity
  8
Generic Sections
  6
Continuous2
 62
     8
420
  8421504
 60
     1
370
    -3
100
AcDbLine
 10
-3083.06459026875
 20
-63.4045113179324
 30
0.0
 11
-3082.980562538984
 21
-63.4045113179324
 31
0.0
  0
LINE
  5
15B
330
1F
100
AcDbEntity
  8
Generic Sections
  6
Continuous2
 62
     8
420
  8421504
 60
     1
370
    -3
100
AcDbLine
 10
-3083.148062538984
 20
-63.5920113179324
 30
0.0
 11
-3083.23990276875
 21
-63.5920113179324
 31
0.0
  0
LINE
  5
15C
330
1F
100
AcDbEntity
  8
Generic Sections
  6
Continuous2
 62
     8
420
  8421504
 60
     1
370
    -3
100
AcDbLine
 10
-3083.257953774328
 20
-63.5920113179324
 30
0.0
 11
-3083.341984009453
 21
-63.5920113179324
 31
0.0
  0
LINE
  5
15D
330
1F
100
AcDbEntity
  8
Generic Sections
  6
Continuous2
 62
     8
420
  8421504
 60
     1
370
    -3
100
AcDbLine
 10
-3083.29459026875
 20
-63.4045113179324
 30
0.0
 11
-3083.210562538984
 21
-63.4045113179324
 31
0.0
  0
LINE
  5
15E
330
1F
100
AcDbEntity
  8
Generic Sections
  6
Continuous2
 62
     8
420
  8421504
 60
     1
370
    -3
100
AcDbLine
 10
-3083.40447814716
 20
-63.4045113179324
 30
0.0
 11
-3083.312641274328
 21
-63.4045113179324
 31
0.0
  0
LINE
  5
15F
330
1F
100
AcDbEntity
  8
Generic Sections
  6
Continuous2
 62
     8
420
  8421504
 60
     1
370
    -3
100
AcDbLine
 10
-3083.378062538985
 20
-63.5920113179324
 30
0.0
 11
-3083.46990276875
 21
-63.5920113179324
 31
0.0
  0
LINE
  5
160
330
1F
100
AcDbEntity
  8
Generic Sections
  6
Continuous2
 62
     8
420
  8421504
 60
     1
370
    -3
100
AcDbLine
 10
-3082.147522004995
 20
-63.5920113179324
 30
0.0
 11
-3082.191984009452
 21
-63.5920113179324
 31
0.0
  0
LINE
  5
161
330
1F
100
AcDbEntity
  8
Generic Sections
  6
Continuous2
 62
     8
420
  8421504
 60
     1
370
    -3
100
AcDbLine
 10
-3083.52459026875
 20
-63.4045113179324
 30
0.0
 11
-3083.440562538985
 21
-63.4045113179324
 31
0.0
  0
LINE
  5
162
330
1F
100
AcDbEntity
  8
Generic Sections
  6
Continuous2
 62
     8
420
  8421504
 60
     1
370
    -3
100
AcDbLine
 10
-3083.69990276875
 20
-63.5920113179324
 30
0.0
 11
-3083.608062538984
 21
-63.5920113179324
 31
0.0
  0
LINE
  5
163
330
1F
100
AcDbEntity
  8
Generic Sections
  6
Continuous2
 62
     8
420
  8421504
 60
     1
370
    -3
100
AcDbLine
 10
-3083.838062538985
 20
-63.5920113179324
 30
0.0
 11
-3083.92990276875
 21
-63.5920113179324
 31
0.0
  0
LINE
  5
164
330
1F
100
AcDbEntity
  8
Generic Sections
  6
Continuous2
 62
     8
420
  8421504
 60
     1
370
    -3
100
AcDbLine
 10
-3083.947953774328
 20
-63.5920113179324
 30
0.0
 11
-3084.031984009453
 21
-63.5920113179324
 31
0.0
  0
LINE
  5
165
330
1F
100
AcDbEntity
  8
Generic Sections
  6
Continuous2
 62
     8
420
  8421504
 60
     1
370
    -3
100
AcDbLine
 10
-3084.085022004995
 20
-63.4045113179324
 30
0.0
 11
-3084.002641274328
 21
-63.4045113179324
 31
0.0
  0
LINE
  5
166
330
1F
100
AcDbEntity
  8
Generic Sections
  6
Continuous2
 62
     8
420
  8421504
 60
     1
370
    -3
100
AcDbLine
 10
-3084.068062538984
 20
-63.5920113179324
 30
0.0
 11
-3084.085022004995
 21
-63.5920113179324
 31
0.0
  0
LINE
  5
167
330
1F
100
AcDbEntity
  8
Generic Sections
  6
Continuous2
 62
     8
420
  8421504
 60
     1
370
    -3
100
AcDbLine
 10
-3084.093082091757
 20
-63.40692935682061
 30
0.0
 11
-3084.085022004995
 21
-63.4045113179324
 31
0.0
  0
LINE
  5
168
330
1F
100
AcDbEntity
  8
Generic Sections
  6
Continuous2
 62
     8
420
  8421504
 60
     1
370
    -3
100
AcDbLine
 10
-3084.112520343072
 20
-63.3732613179324
 30
0.0
 11
-3084.093082091757
 21
-63.40692935682061
 31
0.0
  0
LINE
  5
169
330
1F
100
AcDbEntity
  8
Generic Sections
  6
Continuous2
 62
     8
420
  8421504
 60
     1
370
    -3
100
AcDbLine
 10
-3084.112520343072
 20
-63.3732613179324
 30
0.0
 11
-3084.140102876522
 21
-63.42103566726989
 31
0.0
  0
LINE
  5
16A
330
1F
100
AcDbEntity
  8
Generic Sections
  6
Continuous2
 62
     8
420
  8421504
 60
     1
370
    -3
100
AcDbLine
 10
-3084.050023274219
 20
-63.62325624103657
 30
0.0
 11
-3084.031984009453
 21
-63.5920113179324
 31
0.0
  0
LINE
  5
16B
330
1F
100
AcDbEntity
  8
Generic Sections
  6
Continuous2
 62
     8
420
  8421504
 60
     1
370
    -3
100
AcDbLine
 10
-3084.050020343072
 20
-63.6232613179324
 30
0.0
 11
-3084.068062538984
 21
-63.5920113179324
 31
0.0
  0
LINE
  5
16C
330
1F
100
AcDbEntity
  8
Generic Sections
  6
Continuous2
 62
     8
420
  8421504
 60
     1
370
    -3
100
AcDbLine
 10
-3083.882520343072
 20
-63.3732613179324
 30
0.0
 11
-3083.900562538985
 21
-63.4045113179324
 31
0.0
  0
LINE
  5
16D
330
1F
100
AcDbEntity
  8
Generic Sections
  6
Continuous2
 62
     8
420
  8421504
 60
     1
370
    -3
100
AcDbLine
 10
-3083.763615771539
 20
-63.38887868853787
 30
0.0
 11
-3083.772641274328
 21
-63.4045113179324
 31
0.0
  0
LINE
  5
16E
330
1F
100
AcDbEntity
  8
Generic Sections
  6
Continuous2
 62
     8
420
  8421504
 60
     1
370
    -3
100
AcDbLine
 10
-3083.652520343072
 20
-63.3732613179324
 30
0.0
 11
-3083.670562538984
 21
-63.4045113179324
 31
0.0
  0
LINE
  5
16F
330
1F
100
AcDbEntity
  8
Generic Sections
  6
Continuous2
 62
     8
420
  8421504
 60
     1
370
    -3
100
AcDbLine
 10
-3083.708928271539
 20
-63.60764394732693
 30
0.0
 11
-3083.69990276875
 21
-63.5920113179324
 31
0.0
  0
LINE
  5
170
330
1F
100
AcDbEntity
  8
Generic Sections
  6
Continuous2
 62
     8
420
  8421504
 60
     1
370
    -3
100
AcDbLine
 10
-3083.708928271539
 20
-63.60764394732693
 30
0.0
 11
-3083.717953774328
 21
-63.5920113179324
 31
0.0
  0
LINE
  5
171
330
1F
100
AcDbEntity
  8
Generic Sections
  6
Continuous2
 62
     8
420
  8421504
 60
     1
370
    -3
100
AcDbLine
 10
-3083.422520343072
 20
-63.3732613179324
 30
0.0
 11
-3083.40447814716
 21
-63.4045113179324
 31
0.0
  0
LINE
  5
172
330
1F
100
AcDbEntity
  8
Generic Sections
  6
Continuous2
 62
     8
420
  8421504
 60
     1
370
    -3
100
AcDbLine
 10
-3083.360023274218
 20
-63.62325624103657
 30
0.0
 11
-3083.341984009453
 21
-63.5920113179324
 31
0.0
  0
LINE
  5
173
330
1F
100
AcDbEntity
  8
Generic Sections
  6
Continuous2
 62
     8
420
  8421504
 60
     1
370
    -3
100
AcDbLine
 10
-3083.192520343072
 20
-63.3732613179324
 30
0.0
 11
-3083.210562538984
 21
-63.4045113179324
 31
0.0
  0
LINE
  5
174
330
1F
100
AcDbEntity
  8
Generic Sections
  6
Continuous2
 62
     8
420
  8421504
 60
     1
370
    -3
100
AcDbLine
 10
-3083.248928271539
 20
-63.60764394732693
 30
0.0
 11
-3083.23990276875
 21
-63.5920113179324
 31
0.0
  0
LINE
  5
175
330
1F
100
AcDbEntity
  8
Generic Sections
  6
Continuous2
 62
     8
420
  8421504
 60
     1
370
    -3
100
AcDbLine
 10
-3083.073615771539
 20
-63.38887868853787
 30
0.0
 11
-3083.082641274328
 21
-63.4045113179324
 31
0.0
  0
LINE
  5
176
330
1F
100
AcDbEntity
  8
Generic Sections
  6
Continuous2
 62
     8
420
  8421504
 60
     1
370
    -3
100
AcDbLine
 10
-3083.073615771539
 20
-63.38887868853787
 30
0.0
 11
-3083.06459026875
 21
-63.4045113179324
 31
0.0
  0
LINE
  5
177
330
1F
100
AcDbEntity
  8
Generic Sections
  6
Continuous2
 62
     8
420
  8421504
 60
     1
370
    -3
100
AcDbLine
 10
-3082.962520343072
 20
-63.3732613179324
 30
0.0
 11
-3082.94447814716
 21
-63.4045113179324
 31
0.0
  0
LINE
  5
178
330
1F
100
AcDbEntity
  8
Generic Sections
  6
Continuous2
 62
     8
420
  8421504
 60
     1
370
    -3
100
AcDbLine
 10
-3082.962520343072
 20
-63.3732613179324
 30
0.0
 11
-3082.980562538984
 21
-63.4045113179324
 31
0.0
  0
LINE
  5
179
330
1F
100
AcDbEntity
  8
Generic Sections
  6
Continuous2
 62
     8
420
  8421504
 60
     1
370
    -3
100
AcDbLine
 10
-3082.900023274218
 20
-63.62325624103657
 30
0.0
 11
-3082.881984009453
 21
-63.5920113179324
 31
0.0
  0
LINE
  5
17A
330
1F
100
AcDbEntity
  8
Generic Sections
  6
Continuous2
 62
     8
420
  8421504
 60
     1
370
    -3
100
AcDbLine
 10
-3082.900020343072
 20
-63.6232613179324
 30
0.0
 11
-3082.918062538984
 21
-63.5920113179324
 31
0.0
  0
LINE
  5
17B
330
1F
100
AcDbEntity
  8
Generic Sections
  6
Continuous2
 62
     8
420
  8421504
 60
     1
370
    -3
100
AcDbLine
 10
-3082.670023274219
 20
-63.62325624103657
 30
0.0
 11
-3082.651984009452
 21
-63.5920113179324
 31
0.0
  0
LINE
  5
17C
330
1F
100
AcDbEntity
  8
Generic Sections
  6
Continuous2
 62
     8
420
  8421504
 60
     1
370
    -3
100
AcDbLine
 10
-3082.613615771539
 20
-63.38887868853787
 30
0.0
 11
-3082.622641274328
 21
-63.4045113179324
 31
0.0
  0
LINE
  5
17D
330
1F
100
AcDbEntity
  8
Generic Sections
  6
Continuous2
 62
     8
420
  8421504
 60
     1
370
    -3
100
AcDbLine
 10
-3082.613615771539
 20
-63.38887868853787
 30
0.0
 11
-3082.60459026875
 21
-63.4045113179324
 31
0.0
  0
LINE
  5
17E
330
1F
100
AcDbEntity
  8
Generic Sections
  6
Continuous2
 62
     8
420
  8421504
 60
     1
370
    -3
100
AcDbLine
 10
-3082.502520343072
 20
-63.3732613179324
 30
0.0
 11
-3082.520562538984
 21
-63.4045113179324
 31
0.0
  0
LINE
  5
17F
330
1F
100
AcDbEntity
  8
Generic Sections
  6
Continuous2
 62
     8
420
  8421504
 60
     1
370
    -3
100
AcDbLine
 10
-3082.440023274218
 20
-63.62325624103657
 30
0.0
 11
-3082.421984009453
 21
-63.5920113179324
 31
0.0
  0
LINE
  5
180
330
1F
100
AcDbEntity
  8
Generic Sections
  6
Continuous2
 62
     8
420
  8421504
 60
     1
370
    -3
100
AcDbLine
 10
-3082.558928271539
 20
-63.60764394732693
 30
0.0
 11
-3082.567953774328
 21
-63.5920113179324
 31
0.0
  0
LINE
  5
181
330
1F
100
AcDbEntity
  8
Generic Sections
  6
Continuous2
 62
     8
420
  8421504
 60
     1
370
    -3
100
AcDbLine
 10
-3082.328928271539
 20
-63.60764394732693
 30
0.0
 11
-3082.31990276875
 21
-63.5920113179324
 31
0.0
  0
LINE
  5
182
330
1F
100
AcDbEntity
  8
Generic Sections
  6
Continuous2
 62
     8
420
  8421504
 60
     1
370
    -3
100
AcDbLine
 10
-3082.328928271539
 20
-63.60764394732693
 30
0.0
 11
-3082.337953774328
 21
-63.5920113179324
 31
0.0
  0
LINE
  5
183
330
1F
100
AcDbEntity
  8
Generic Sections
  6
Continuous2
 62
     8
420
  8421504
 60
     1
370
    -3
100
AcDbLine
 10
-3082.383615771539
 20
-63.38887868853787
 30
0.0
 11
-3082.392641274328
 21
-63.4045113179324
 31
0.0
  0
LINE
  5
184
330
1F
100
AcDbEntity
  8
Generic Sections
  6
Continuous2
 62
     8
420
  8421504
 60
     1
370
    -3
100
AcDbLine
 10
-3083.478927004995
 20
-63.60764131793228
 30
0.0
 11
-3083.533617004995
 21
-63.38888131793253
 31
0.0
  0
LINE
  5
185
330
1F
100
AcDbEntity
  8
Generic Sections
  6
Continuous2
 62
     8
420
  8421504
 60
     1
370
    -3
100
AcDbLine
 10
-3082.558927004995
 20
-63.60764131793228
 30
0.0
 11
-3082.613617004995
 21
-63.38888131793253
 31
0.0
  0
LINE
  5
186
330
1F
100
AcDbEntity
  8
Generic Sections
  6
Continuous2
 62
     8
420
  8421504
 60
     1
370
    -3
100
AcDbLine
 10
-3082.328927004995
 20
-63.60764131793228
 30
0.0
 11
-3082.383617004994
 21
-63.38888131793253
 31
0.0
  0
LINE
  5
187
330
1F
100
AcDbEntity
  8
Generic Sections
  6
Continuous2
 62
     8
420
  8421504
 60
     1
370
    -3
100
AcDbLine
 10
-3084.050022004995
 20
-63.6232613179324
 30
0.0
 11
-3084.112522004995
 21
-63.3732613179324
 31
0.0
  0
LINE
  5
188
330
1F
100
AcDbEntity
  8
Generic Sections
  6
Continuous2
 62
     8
420
  8421504
 60
     1
370
    -3
100
AcDbLine
 10
-3083.590022004995
 20
-63.6232613179324
 30
0.0
 11
-3083.652522004995
 21
-63.3732613179324
 31
0.0
  0
LINE
  5
189
330
1F
100
AcDbEntity
  8
Generic Sections
  6
Continuous2
 62
     8
420
  8421504
 60
     1
370
    -3
100
AcDbLine
 10
-3082.440022004995
 20
-63.6232613179324
 30
0.0
 11
-3082.502522004995
 21
-63.3732613179324
 31
0.0
  0
LINE
  5
18A
330
1F
100
AcDbEntity
  8
Generic Sections
  6
Continuous2
 62
     8
420
  8421504
 60
     1
370
    -3
100
AcDbLine
 10
-3082.210022004995
 20
-63.6232613179324
 30
0.0
 11
-3082.272522004995
 21
-63.3732613179324
 31
0.0
  0
LINE
  5
18B
330
1F
100
AcDbEntity
  8
Generic Sections
  6
Continuous2
 62
     8
420
  8421504
 60
     1
370
    -3
100
AcDbLine
 10
-3084.397520343072
 20
-63.4982613179324
 30
0.0
 11
-3084.140102876522
 21
-63.42103566726989
 31
0.0
  0
LINE
  5
18C
330
1F
100
AcDbEntity
  8
Generic Sections
  6
Continuous2
 62
     8
420
  8421504
 60
     1
370
    -3
100
AcDbLine
 10
-3084.085022004995
 20
-63.5920113179324
 30
0.0
 11
-3084.397520343072
 21
-63.4982613179324
 31
0.0
  0
LINE
  5
18D
330
1F
100
AcDbEntity
  8
Generic Sections
  6
Continuous2
 62
     8
420
  8421504
 60
     1
370
    -3
100
AcDbLine
 10
-3083.487953774328
 20
-63.5920113179324
 30
0.0
 11
-3083.571984009453
 21
-63.5920113179324
 31
0.0
  0
LINE
  5
18E
330
1F
100
AcDbEntity
  8
Generic Sections
  6
Continuous2
 62
     9
420
 12632256
 60
     1
370
    -3
100
AcDbLine
 10
-3081.80042831125
 20
-63.52033027561815
 30
0.0
 11
-3081.835069298137
 21
-63.50033033387994
 31
0.0
  0
LINE
  5
18F
330
1F
100
AcDbEntity
  8
Generic Sections
  6
Continuous2
 62
     9
420
 12632256
 60
     1
370
    -3
100
AcDbLine
 10
-3081.800428252721
 20
-63.4803085196483
 30
0.0
 11
-3081.835069298137
 21
-63.50030857791052
 31
0.0
  0
LINE
  5
190
330
1F
100
AcDbEntity
  8
Full Sections
  6
Continuous2
 62
    96
420
    32768
 60
     1
370
    -3
100
AcDbLine
 10
546.4062535261651
 20
-1078.00142162768
 30
0.0
 11
546.4062535261651
 21
-1078.063905300398
 31
0.0
  0
LINE
  5
191
330
1F
100
AcDbEntity
  8
Full Sections
  6
Continuous2
 62
    96
420
    32768
 60
     1
370
    -3
100
AcDbLine
 10
547.531253526196
 20
-1078.00142162768
 30
0.0
 11
547.531253526196
 21
-1078.063905300398
 31
0.0
  0
LINE
  5
192
330
1F
100
AcDbEntity
  8
Full Sections
  6
Continuous2
 62
    96
420
    32768
 60
     1
370
    -3
100
AcDbLine
 10
547.5312535262005
 20
-1079.126430408402
 30
0.0
 11
547.5312535262005
 21
-1079.095150593367
 31
0.0
  0
LINE
  5
193
330
1F
100
AcDbEntity
  8
Full Sections
  6
Continuous2
 62
    96
420
    32768
 60
     1
370
    -3
100
AcDbLine
 10
546.4062535261705
 20
-1079.126430408402
 30
0.0
 11
546.4062535261705
 21
-1079.095150593367
 31
0.0
  0
LINE
  5
194
330
1F
100
AcDbEntity
  8
Full Sections
  6
Continuous2
 62
    96
420
    32768
 60
     1
370
    -3
100
AcDbLine
 10
-1739.29751036981
 20
-8741.905525516646
 30
0.0
 11
-1739.29751036981
 21
-8741.968009189364
 31
0.0
  0
LINE
  5
195
330
1F
100
AcDbEntity
  8
Full Sections
  6
Continuous2
 62
    96
420
    32768
 60
     1
370
    -3
100
AcDbLine
 10
-1738.172510369779
 20
-8741.905525516646
 30
0.0
 11
-1738.172510369779
 21
-8741.968009189364
 31
0.0
  0
LINE
  5
196
330
1F
100
AcDbEntity
  8
Full Sections
  6
Continuous2
 62
    96
420
    32768
 60
     1
370
    -3
100
AcDbLine
 10
-1738.172510369774
 20
-8743.030534297368
 30
0.0
 11
-1738.172510369774
 21
-8742.999254482333
 31
0.0
  0
LINE
  5
197
330
1F
100
AcDbEntity
  8
Full Sections
  6
Continuous2
 62
    96
420
    32768
 60
     1
370
    -3
100
AcDbLine
 10
-1739.297510369805
 20
-8743.030534297368
 30
0.0
 11
-1739.297510369805
 21
-8742.999254482333
 31
0.0
  0
LINE
  5
198
330
1F
100
AcDbEntity
  8
Door D7 Tye 4 Dining
  6
Continuous2
 62
     5
420
      255
 60
     1
370
    -3
100
AcDbLine
 10
1069.33231265072
 20
-1827.248356218493
 30
0.0
 11
1063.859628616503
 21
-1827.248356218493
 31
0.0
  0
LINE
  5
199
330
1F
100
AcDbEntity
  8
Door D7 Tye 4 Dining
  6
Continuous2
 62
     5
420
      255
 60
     1
370
    -3
100
AcDbLine
 10
1068.66731265072
 20
-1826.248356218493
 30
0.0
 11
1068.83231265072
 21
-1827.248356218493
 31
0.0
  0
LINE
  5
19A
330
1F
100
AcDbEntity
  8
Door D7 Tye 4 Dining
  6
Continuous2
 62
     5
420
      255
 60
     1
370
    -3
100
AcDbLine
 10
1068.99731265072
 20
-1826.248356218493
 30
0.0
 11
1068.83231265072
 21
-1827.248356218493
 31
0.0
  0
LINE
  5
19B
330
1F
100
AcDbEntity
  8
Door D7 Tye 4 Dining
  6
Continuous2
 62
     5
420
      255
 60
     1
370
    -3
100
AcDbLine
 10
1068.99731265072
 20
-1819.150356218493
 30
0.0
 11
1068.83231265072
 21
-1818.150356218493
 31
0.0
  0
LINE
  5
19C
330
1F
100
AcDbEntity
  8
Door D7 Tye 4 Dining
  6
Continuous2
 62
     5
420
      255
 60
     1
370
    -3
100
AcDbLine
 10
1068.66731265072
 20
-1819.150356218493
 30
0.0
 11
1068.83231265072
 21
-1818.150356218493
 31
0.0
  0
LINE
  5
19D
330
1F
100
AcDbEntity
  8
Door D7 Tye 4 Dining
  6
Continuous2
 62
     5
420
      255
 60
     1
370
    -3
100
AcDbLine
 10
1068.83231265072
 20
-1824.812336987724
 30
0.0
 11
1068.83231265072
 21
-1827.248356218493
 31
0.0
  0
LINE
  5
19E
330
1F
100
AcDbEntity
  8
Door D7 Tye 4 Dining
  6
Continuous2
 62
     5
420
      255
 60
     1
370
    -3
100
AcDbLine
 10
1068.66731265072
 20
-1826.248356218493
 30
0.0
 11
1068.83231265072
 21
-1827.248356218493
 31
0.0
  0
LINE
  5
19F
330
1F
100
AcDbEntity
  8
Door D7 Tye 4 Dining
  6
Continuous2
 62
     5
420
      255
 60
     1
370
    -3
100
AcDbLine
 10
1068.99731265072
 20
-1826.248356218493
 30
0.0
 11
1068.83231265072
 21
-1827.248356218493
 31
0.0
  0
LINE
  5
1A0
330
1F
100
AcDbEntity
  8
Door D7 Tye 4 Dining
  6
Continuous2
 62
     5
420
      255
 60
     1
370
    -3
100
AcDbLine
 10
1068.99731265072
 20
-1819.150356218493
 30
0.0
 11
1068.83231265072
 21
-1818.150356218493
 31
0.0
  0
LINE
  5
1A1
330
1F
100
AcDbEntity
  8
Door D7 Tye 4 Dining
  6
Continuous2
 62
     5
420
      255
 60
     1
370
    -3
100
AcDbLine
 10
1068.66731265072
 20
-1819.150356218493
 30
0.0
 11
1068.83231265072
 21
-1818.150356218493
 31
0.0
  0
TEXT
  5
1A2
330
1F
100
AcDbEntity
  8
Door D7 Tye 4 Dining
  6
Continuous2
 62
     5
420
      255
 60
     1
370
    -3
100
AcDbText
 10
1067.036969513465
 20
-1823.199356218493
 30
0.0
 40
1.0
  1
9.098
 41
0.625
  7
MCStick_A0.625000_S0.000000
100
AcDbText
  0
LINE
  5
1A4
330
1F
100
AcDbEntity
  8
Door D7 Tye 4 Dining
  6
Continuous2
 62
     5
420
      255
 60
     1
370
    -3
100
AcDbLine
 10
1068.83231265072
 20
-1820.586375449263
 30
0.0
 11
1068.83231265072
 21
-1818.150356218493
 31
0.0
  0
LINE
  5
1A5
330
1F
100
AcDbEntity
  8
Door D7 Tye 4 Dining
  6
Continuous2
 62
     5
420
      255
 60
     1
370
    -3
100
AcDbLine
 10
1068.66731265072
 20
-1826.248356218493
 30
0.0
 11
1068.83231265072
 21
-1827.248356218493
 31
0.0
  0
LINE
  5
1A6
330
1F
100
AcDbEntity
  8
Door D7 Tye 4 Dining
  6
Continuous2
 62
     5
420
      255
 60
     1
370
    -3
100
AcDbLine
 10
1068.99731265072
 20
-1826.248356218493
 30
0.0
 11
1068.83231265072
 21
-1827.248356218493
 31
0.0
  0
LINE
  5
1A7
330
1F
100
AcDbEntity
  8
Door D7 Tye 4 Dining
  6
Continuous2
 62
     5
420
      255
 60
     1
370
    -3
100
AcDbLine
 10
1068.99731265072
 20
-1819.150356218493
 30
0.0
 11
1068.83231265072
 21
-1818.150356218493
 31
0.0
  0
LINE
  5
1A8
330
1F
100
AcDbEntity
  8
Door D7 Tye 4 Dining
  6
Continuous2
 62
     5
420
      255
 60
     1
370
    -3
100
AcDbLine
 10
1068.66731265072
 20
-1819.150356218493
 30
0.0
 11
1068.83231265072
 21
-1818.150356218493
 31
0.0
  0
LINE
  5
1A9
330
1F
100
AcDbEntity
  8
Door D7 Tye 4 Dining
  6
Continuous2
 62
     5
420
      255
 60
     1
370
    -3
100
AcDbLine
 10
1069.33231265072
 20
-1818.150356218493
 30
0.0
 11
1066.846208644935
 21
-1818.150356218493
 31
0.0
  0
LINE
  5
1AA
330
1F
100
AcDbEntity
  8
Door D7 Tye 4 Dining
  6
Continuous2
 62
     5
420
      255
 60
     1
370
    -3
100
AcDbLine
 10
1068.66731265072
 20
-1826.248356218493
 30
0.0
 11
1068.83231265072
 21
-1827.248356218493
 31
0.0
  0
LINE
  5
1AB
330
1F
100
AcDbEntity
  8
Door D7 Tye 4 Dining
  6
Continuous2
 62
     5
420
      255
 60
     1
370
    -3
100
AcDbLine
 10
1068.99731265072
 20
-1826.248356218493
 30
0.0
 11
1068.83231265072
 21
-1827.248356218493
 31
0.0
  0
LINE
  5
1AC
330
1F
100
AcDbEntity
  8
Door D7 Tye 4 Dining
  6
Continuous2
 62
     5
420
      255
 60
     1
370
    -3
100
AcDbLine
 10
1068.99731265072
 20
-1819.150356218493
 30
0.0
 11
1068.83231265072
 21
-1818.150356218493
 31
0.0
  0
LINE
  5
1AD
330
1F
100
AcDbEntity
  8
Door D7 Tye 4 Dining
  6
Continuous2
 62
     5
420
      255
 60
     1
370
    -3
100
AcDbLine
 10
1068.66731265072
 20
-1819.150356218493
 30
0.0
 11
1068.83231265072
 21
-1818.150356218493
 31
0.0
  0
LINE
  5
1AE
330
1F
100
AcDbEntity
  8
Door D7 Tye 4 Dining
  6
Continuous2
 62
     5
420
      255
 60
     1
370
    -3
100
AcDbLine
 10
1063.162284066607
 20
-1816.900356218493
 30
0.0
 11
1064.846208644935
 21
-1816.900356218493
 31
0.0
  0
LINE
  5
1AF
330
1F
100
AcDbEntity
  8
Door D7 Tye 4 Dining
  6
Continuous2
 62
     5
420
      255
 60
     1
370
    -3
100
AcDbLine
 10
1063.497284066607
 20
-1815.900356218493
 30
0.0
 11
1063.662284066607
 21
-1816.900356218493
 31
0.0
  0
LINE
  5
1B0
330
1F
100
AcDbEntity
  8
Door D7 Tye 4 Dining
  6
Continuous2
 62
     5
420
      255
 60
     1
370
    -3
100
AcDbLine
 10
1063.827284066607
 20
-1815.900356218493
 30
0.0
 11
1063.662284066607
 21
-1816.900356218493
 31
0.0
  0
LINE
  5
1B1
330
1F
100
AcDbEntity
  8
Door D7 Tye 4 Dining
  6
Continuous2
 62
     5
420
      255
 60
     1
370
    -3
100
AcDbLine
 10
1063.827284066607
 20
-1808.802356218493
 30
0.0
 11
1063.662284066607
 21
-1807.802356218493
 31
0.0
  0
LINE
  5
1B2
330
1F
100
AcDbEntity
  8
Door D7 Tye 4 Dining
  6
Continuous2
 62
     5
420
      255
 60
     1
370
    -3
100
AcDbLine
 10
1063.497284066607
 20
-1808.802356218493
 30
0.0
 11
1063.662284066607
 21
-1807.802356218493
 31
0.0
  0
LINE
  5
1B3
330
1F
100
AcDbEntity
  8
Door D7 Tye 4 Dining
  6
Continuous2
 62
     5
420
      255
 60
     1
370
    -3
100
AcDbLine
 10
1063.662284066607
 20
-1812.351356218493
 30
0.0
 11
1063.662284066607
 21
-1816.900356218493
 31
0.0
  0
LINE
  5
1B4
330
1F
100
AcDbEntity
  8
Door D7 Tye 4 Dining
  6
Continuous2
 62
     5
420
      255
 60
     1
370
    -3
100
AcDbLine
 10
1063.662284066607
 20
-1812.351356218493
 30
0.0
 11
1063.662284066607
 21
-1821.375663840945
 31
0.0
  0
LINE
  5
1B5
330
1F
100
AcDbEntity
  8
Door D7 Tye 4 Dining
  6
Continuous2
 62
     5
420
      255
 60
     1
370
    -3
100
AcDbLine
 10
1063.662284066607
 20
-1821.375663840945
 30
0.0
 11
1065.662284066607
 21
-1821.375663840945
 31
0.0
  0
LINE
  5
1B6
330
1F
100
AcDbEntity
  8
Door D7 Tye 4 Dining
  6
Continuous2
 62
     5
420
      255
 60
     1
370
    -3
100
AcDbLine
 10
1063.497284066607
 20
-1815.900356218493
 30
0.0
 11
1063.662284066607
 21
-1816.900356218493
 31
0.0
  0
LINE
  5
1B7
330
1F
100
AcDbEntity
  8
Door D7 Tye 4 Dining
  6
Continuous2
 62
     5
420
      255
 60
     1
370
    -3
100
AcDbLine
 10
1063.827284066607
 20
-1815.900356218493
 30
0.0
 11
1063.662284066607
 21
-1816.900356218493
 31
0.0
  0
LINE
  5
1B8
330
1F
100
AcDbEntity
  8
Door D7 Tye 4 Dining
  6
Continuous2
 62
     5
420
      255
 60
     1
370
    -3
100
AcDbLine
 10
1063.827284066607
 20
-1808.802356218493
 30
0.0
 11
1063.662284066607
 21
-1807.802356218493
 31
0.0
  0
LINE
  5
1B9
330
1F
100
AcDbEntity
  8
Door D7 Tye 4 Dining
  6
Continuous2
 62
     5
420
      255
 60
     1
370
    -3
100
AcDbLine
 10
1063.497284066607
 20
-1808.802356218493
 30
0.0
 11
1063.662284066607
 21
-1807.802356218493
 31
0.0
  0
TEXT
  5
1BA
330
1F
100
AcDbEntity
  8
Door D7 Tye 4 Dining
  6
Continuous2
 62
     5
420
      255
 60
     1
370
    -3
100
AcDbText
 10
1067.162284066607
 20
-1821.875663840945
 30
0.0
 40
1.0
  1
9.098
 41
0.625
  7
MCStick_A0.625000_S0.000000
100
AcDbText
  0
LINE
  5
1BB
330
1F
100
AcDbEntity
  8
Door D7 Tye 4 Dining
  6
Continuous2
 62
     5
420
      255
 60
     1
370
    -3
100
AcDbLine
 10
1063.662284066607
 20
-1812.351356218493
 30
0.0
 11
1063.662284066607
 21
-1807.802356218493
 31
0.0
  0
LINE
  5
1BC
330
1F
100
AcDbEntity
  8
Door D7 Tye 4 Dining
  6
Continuous2
 62
     5
420
      255
 60
     1
370
    -3
100
AcDbLine
 10
1063.497284066607
 20
-1815.900356218493
 30
0.0
 11
1063.662284066607
 21
-1816.900356218493
 31
0.0
  0
LINE
  5
1BD
330
1F
100
AcDbEntity
  8
Door D7 Tye 4 Dining
  6
Continuous2
 62
     5
420
      255
 60
     1
370
    -3
100
AcDbLine
 10
1063.827284066607
 20
-1815.900356218493
 30
0.0
 11
1063.662284066607
 21
-1816.900356218493
 31
0.0
  0
LINE
  5
1BE
330
1F
100
AcDbEntity
  8
Door D7 Tye 4 Dining
  6
Continuous2
 62
     5
420
      255
 60
     1
370
    -3
100
AcDbLine
 10
1063.827284066607
 20
-1808.802356218493
 30
0.0
 11
1063.662284066607
 21
-1807.802356218493
 31
0.0
  0
LINE
  5
1BF
330
1F
100
AcDbEntity
  8
Door D7 Tye 4 Dining
  6
Continuous2
 62
     5
420
      255
 60
     1
370
    -3
100
AcDbLine
 10
1063.497284066607
 20
-1808.802356218493
 30
0.0
 11
1063.662284066607
 21
-1807.802356218493
 31
0.0
  0
LINE
  5
1C0
330
1F
100
AcDbEntity
  8
Door D7 Tye 4 Dining
  6
Continuous2
 62
     5
420
      255
 60
     1
370
    -3
100
AcDbLine
 10
1063.162284066607
 20
-1807.802356218493
 30
0.0
 11
1064.846208644935
 21
-1807.802356218493
 31
0.0
  0
LINE
  5
1C1
330
1F
100
AcDbEntity
  8
Door D7 Tye 4 Dining
  6
Continuous2
 62
     5
420
      255
 60
     1
370
    -3
100
AcDbLine
 10
1063.497284066607
 20
-1815.900356218493
 30
0.0
 11
1063.662284066607
 21
-1816.900356218493
 31
0.0
  0
LINE
  5
1C2
330
1F
100
AcDbEntity
  8
Door D7 Tye 4 Dining
  6
Continuous2
 62
     5
420
      255
 60
     1
370
    -3
100
AcDbLine
 10
1063.827284066607
 20
-1815.900356218493
 30
0.0
 11
1063.662284066607
 21
-1816.900356218493
 31
0.0
  0
LINE
  5
1C3
330
1F
100
AcDbEntity
  8
Door D7 Tye 4 Dining
  6
Continuous2
 62
     5
420
      255
 60
     1
370
    -3
100
AcDbLine
 10
1063.827284066607
 20
-1808.802356218493
 30
0.0
 11
1063.662284066607
 21
-1807.802356218493
 31
0.0
  0
LINE
  5
1C4
330
1F
100
AcDbEntity
  8
Door D7 Tye 4 Dining
  6
Continuous2
 62
     5
420
      255
 60
     1
370
    -3
100
AcDbLine
 10
1063.497284066607
 20
-1808.802356218493
 30
0.0
 11
1063.662284066607
 21
-1807.802356218493
 31
0.0
  0
LINE
  5
1C5
330
1F
100
AcDbEntity
  8
Door D7 Tye 4 Dining
  6
Continuous2
 62
     5
420
      255
 60
     1
370
    -3
100
AcDbLine
 10
1059.877046285511
 20
-1848.948124849045
 30
0.0
 11
1059.877046285511
 21
-1848.948124849045
 31
0.0
  0
LINE
  5
1C6
330
1F
100
AcDbEntity
  8
Door D7 Tye 4 Dining
  6
Continuous2
 62
     5
420
      255
 60
     1
370
    -3
100
AcDbLine
 10
1060.877046285511
 20
-1847.802924057246
 30
0.0
 11
1059.877046285511
 21
-1847.967924057246
 31
0.0
  0
LINE
  5
1C7
330
1F
100
AcDbEntity
  8
Door D7 Tye 4 Dining
  6
Continuous2
 62
     5
420
      255
 60
     1
370
    -3
100
AcDbLine
 10
1060.877046285511
 20
-1848.132924057246
 30
0.0
 11
1059.877046285511
 21
-1847.967924057246
 31
0.0
  0
LINE
  5
1C8
330
1F
100
AcDbEntity
  8
Door D7 Tye 4 Dining
  6
Continuous2
 62
     5
420
      255
 60
     1
370
    -3
100
AcDbLine
 10
1064.846206342427
 20
-1848.132924057506
 30
0.0
 11
1065.846206342384
 21
-1847.967924057246
 31
0.0
  0
LINE
  5
1C9
330
1F
100
AcDbEntity
  8
Door D7 Tye 4 Dining
  6
Continuous2
 62
     5
420
      255
 60
     1
370
    -3
100
AcDbLine
 10
1064.846206342341
 20
-1847.802924057506
 30
0.0
 11
1065.846206342384
 21
-1847.967924057246
 31
0.0
  0
LINE
  5
1CA
330
1F
100
AcDbEntity
  8
Door D7 Tye 4 Dining
  6
Continuous2
 62
     5
420
      255
 60
     1
370
    -3
100
AcDbLine
 10
1060.127046285511
 20
-1847.967924057246
 30
0.0
 11
1059.877046285511
 21
-1847.967924057246
 31
0.0
  0
LINE
  5
1CB
330
1F
100
AcDbEntity
  8
Door D7 Tye 4 Dining
  6
Continuous2
 62
     5
420
      255
 60
     1
370
    -3
100
AcDbLine
 10
1060.877046285511
 20
-1847.802924057246
 30
0.0
 11
1059.877046285511
 21
-1847.967924057246
 31
0.0
  0
LINE
  5
1CC
330
1F
100
AcDbEntity
  8
Door D7 Tye 4 Dining
  6
Continuous2
 62
     5
420
      255
 60
     1
370
    -3
100
AcDbLine
 10
1060.877046285511
 20
-1848.132924057246
 30
0.0
 11
1059.877046285511
 21
-1847.967924057246
 31
0.0
  0
LINE
  5
1CD
330
1F
100
AcDbEntity
  8
Door D7 Tye 4 Dining
  6
Continuous2
 62
     5
420
      255
 60
     1
370
    -3
100
AcDbLine
 10
1064.846206342427
 20
-1848.132924057506
 30
0.0
 11
1065.846206342384
 21
-1847.967924057246
 31
0.0
  0
LINE
  5
1CE
330
1F
100
AcDbEntity
  8
Door D7 Tye 4 Dining
  6
Continuous2
 62
     5
420
      255
 60
     1
370
    -3
100
AcDbLine
 10
1064.846206342341
 20
-1847.802924057506
 30
0.0
 11
1065.846206342384
 21
-1847.967924057246
 31
0.0
  0
TEXT
  5
1CF
330
1F
100
AcDbEntity
  8
Door D7 Tye 4 Dining
  6
Continuous2
 62
     5
420
      255
 60
     1
370
    -3
100
AcDbText
 10
1061.627046285511
 20
-1848.467924057246
 30
0.0
 40
1.0
  1
5.969
 41
0.625
  7
MCStick_A0.625000_S0.000000
100
AcDbText
  0
LINE
  5
1D0
330
1F
100
AcDbEntity
  8
Door D7 Tye 4 Dining
  6
Continuous2
 62
     5
420
      255
 60
     1
370
    -3
100
AcDbLine
 10
1065.845956342384
 20
-1847.967924057246
 30
0.0
 11
1065.846206342384
 21
-1847.967924057246
 31
0.0
  0
LINE
  5
1D1
330
1F
100
AcDbEntity
  8
Door D7 Tye 4 Dining
  6
Continuous2
 62
     5
420
      255
 60
     1
370
    -3
100
AcDbLine
 10
1060.877046285511
 20
-1847.802924057246
 30
0.0
 11
1059.877046285511
 21
-1847.967924057246
 31
0.0
  0
LINE
  5
1D2
330
1F
100
AcDbEntity
  8
Door D7 Tye 4 Dining
  6
Continuous2
 62
     5
420
      255
 60
     1
370
    -3
100
AcDbLine
 10
1060.877046285511
 20
-1848.132924057246
 30
0.0
 11
1059.877046285511
 21
-1847.967924057246
 31
0.0
  0
LINE
  5
1D3
330
1F
100
AcDbEntity
  8
Door D7 Tye 4 Dining
  6
Continuous2
 62
     5
420
      255
 60
     1
370
    -3
100
AcDbLine
 10
1064.846206342427
 20
-1848.132924057506
 30
0.0
 11
1065.846206342384
 21
-1847.967924057246
 31
0.0
  0
LINE
  5
1D4
330
1F
100
AcDbEntity
  8
Door D7 Tye 4 Dining
  6
Continuous2
 62
     5
420
      255
 60
     1
370
    -3
100
AcDbLine
 10
1064.846206342341
 20
-1847.802924057506
 30
0.0
 11
1065.846206342384
 21
-1847.967924057246
 31
0.0
  0
LINE
  5
1D5
330
1F
100
AcDbEntity
  8
Door D7 Tye 4 Dining
  6
Continuous2
 62
     5
420
      255
 60
     1
370
    -3
100
AcDbLine
 10
1065.846206342384
 20
-1848.948124849045
 30
0.0
 11
1065.846206342384
 21
-1848.948124849045
 31
0.0
  0
LINE
  5
1D6
330
1F
100
AcDbEntity
  8
Door D7 Tye 4 Dining
  6
Continuous2
 62
     5
420
      255
 60
     1
370
    -3
100
AcDbLine
 10
1060.877046285511
 20
-1847.802924057246
 30
0.0
 11
1059.877046285511
 21
-1847.967924057246
 31
0.0
  0
LINE
  5
1D7
330
1F
100
AcDbEntity
  8
Door D7 Tye 4 Dining
  6
Continuous2
 62
     5
420
      255
 60
     1
370
    -3
100
AcDbLine
 10
1060.877046285511
 20
-1848.132924057246
 30
0.0
 11
1059.877046285511
 21
-1847.967924057246
 31
0.0
  0
LINE
  5
1D8
330
1F
100
AcDbEntity
  8
Door D7 Tye 4 Dining
  6
Continuous2
 62
     5
420
      255
 60
     1
370
    -3
100
AcDbLine
 10
1064.846206342427
 20
-1848.132924057506
 30
0.0
 11
1065.846206342384
 21
-1847.967924057246
 31
0.0
  0
LINE
  5
1D9
330
1F
100
AcDbEntity
  8
Door D7 Tye 4 Dining
  6
Continuous2
 62
     5
420
      255
 60
     1
370
    -3
100
AcDbLine
 10
1064.846206342341
 20
-1847.802924057506
 30
0.0
 11
1065.846206342384
 21
-1847.967924057246
 31
0.0
  0
LINE
  5
1DA
330
1F
100
AcDbEntity
  8
Door D7 Tye 4 Dining
  6
Continuous2
 62
     5
420
      255
 60
     1
370
    -3
100
AcDbLine
 10
1069.455859128629
 20
-1847.948124849045
 30
0.0
 11
1066.846206342384
 21
-1847.948124849045
 31
0.0
  0
LINE
  5
1DB
330
1F
100
AcDbEntity
  8
Door D7 Tye 4 Dining
  6
Continuous2
 62
     5
420
      255
 60
     1
370
    -3
100
AcDbLine
 10
1068.790859128629
 20
-1846.948124849045
 30
0.0
 11
1068.955859128629
 21
-1847.948124849045
 31
0.0
  0
LINE
  5
1DC
330
1F
100
AcDbEntity
  8
Door D7 Tye 4 Dining
  6
Continuous2
 62
     5
420
      255
 60
     1
370
    -3
100
AcDbLine
 10
1069.120859128629
 20
-1846.948124849045
 30
0.0
 11
1068.955859128629
 21
-1847.948124849045
 31
0.0
  0
LINE
  5
1DD
330
1F
100
AcDbEntity
  8
Door D7 Tye 4 Dining
  6
Continuous2
 62
     5
420
      255
 60
     1
370
    -3
100
AcDbLine
 10
1069.120859128629
 20
-1839.849356218493
 30
0.0
 11
1068.955859128629
 21
-1838.849356218493
 31
0.0
  0
LINE
  5
1DE
330
1F
100
AcDbEntity
  8
Door D7 Tye 4 Dining
  6
Continuous2
 62
     5
420
      255
 60
     1
370
    -3
100
AcDbLine
 10
1068.790859128629
 20
-1839.849356218493
 30
0.0
 11
1068.955859128629
 21
-1838.849356218493
 31
0.0
  0
LINE
  5
1DF
330
1F
100
AcDbEntity
  8
Door D7 Tye 4 Dining
  6
Continuous2
 62
     5
420
      255
 60
     1
370
    -3
100
AcDbLine
 10
1068.955859128629
 20
-1844.16258115652
 30
0.0
 11
1068.955859128629
 21
-1847.948124849045
 31
0.0
  0
LINE
  5
1E0
330
1F
100
AcDbEntity
  8
Door D7 Tye 4 Dining
  6
Continuous2
 62
     5
420
      255
 60
     1
370
    -3
100
AcDbLine
 10
1068.790859128629
 20
-1846.948124849045
 30
0.0
 11
1068.955859128629
 21
-1847.948124849045
 31
0.0
  0
LINE
  5
1E1
330
1F
100
AcDbEntity
  8
Door D7 Tye 4 Dining
  6
Continuous2
 62
     5
420
      255
 60
     1
370
    -3
100
AcDbLine
 10
1069.120859128629
 20
-1846.948124849045
 30
0.0
 11
1068.955859128629
 21
-1847.948124849045
 31
0.0
  0
LINE
  5
1E2
330
1F
100
AcDbEntity
  8
Door D7 Tye 4 Dining
  6
Continuous2
 62
     5
420
      255
 60
     1
370
    -3
100
AcDbLine
 10
1069.120859128629
 20
-1839.849356218493
 30
0.0
 11
1068.955859128629
 21
-1838.849356218493
 31
0.0
  0
LINE
  5
1E3
330
1F
100
AcDbEntity
  8
Door D7 Tye 4 Dining
  6
Continuous2
 62
     5
420
      255
 60
     1
370
    -3
100
AcDbLine
 10
1068.790859128629
 20
-1839.849356218493
 30
0.0
 11
1068.955859128629
 21
-1838.849356218493
 31
0.0
  0
TEXT
  5
1E4
330
1F
100
AcDbEntity
  8
Door D7 Tye 4 Dining
  6
Continuous2
 62
     5
420
      255
 60
     1
370
    -3
100
AcDbText
 10
1067.160515991374
 20
-1842.549600387289
 30
0.0
 40
1.0
  1
9.099
 41
0.625
  7
MCStick_A0.625000_S0.000000
100
AcDbText
  0
LINE
  5
1E5
330
1F
100
AcDbEntity
  8
Door D7 Tye 4 Dining
  6
Continuous2
 62
     5
420
      255
 60
     1
370
    -3
100
AcDbLine
 10
1068.955859128629
 20
-1839.936619618058
 30
0.0
 11
1068.955859128629
 21
-1838.849356218493
 31
0.0
  0
LINE
  5
1E6
330
1F
100
AcDbEntity
  8
Door D7 Tye 4 Dining
  6
Continuous2
 62
     5
420
      255
 60
     1
370
    -3
100
AcDbLine
 10
1068.790859128629
 20
-1846.948124849045
 30
0.0
 11
1068.955859128629
 21
-1847.948124849045
 31
0.0
  0
LINE
  5
1E7
330
1F
100
AcDbEntity
  8
Door D7 Tye 4 Dining
  6
Continuous2
 62
     5
420
      255
 60
     1
370
    -3
100
AcDbLine
 10
1069.120859128629
 20
-1846.948124849045
 30
0.0
 11
1068.955859128629
 21
-1847.948124849045
 31
0.0
  0
LINE
  5
1E8
330
1F
100
AcDbEntity
  8
Door D7 Tye 4 Dining
  6
Continuous2
 62
     5
420
      255
 60
     1
370
    -3
100
AcDbLine
 10
1069.120859128629
 20
-1839.849356218493
 30
0.0
 11
1068.955859128629
 21
-1838.849356218493
 31
0.0
  0
LINE
  5
1E9
330
1F
100
AcDbEntity
  8
Door D7 Tye 4 Dining
  6
Continuous2
 62
     5
420
      255
 60
     1
370
    -3
100
AcDbLine
 10
1068.790859128629
 20
-1839.849356218493
 30
0.0
 11
1068.955859128629
 21
-1838.849356218493
 31
0.0
  0
LINE
  5
1EA
330
1F
100
AcDbEntity
  8
Door D7 Tye 4 Dining
  6
Continuous2
 62
     5
420
      255
 60
     1
370
    -3
100
AcDbLine
 10
1069.455859128629
 20
-1838.849356218493
 30
0.0
 11
1066.846208644936
 21
-1838.849356218493
 31
0.0
  0
LINE
  5
1EB
330
1F
100
AcDbEntity
  8
Door D7 Tye 4 Dining
  6
Continuous2
 62
     5
420
      255
 60
     1
370
    -3
100
AcDbLine
 10
1068.790859128629
 20
-1846.948124849045
 30
0.0
 11
1068.955859128629
 21
-1847.948124849045
 31
0.0
  0
LINE
  5
1EC
330
1F
100
AcDbEntity
  8
Door D7 Tye 4 Dining
  6
Continuous2
 62
     5
420
      255
 60
     1
370
    -3
100
AcDbLine
 10
1069.120859128629
 20
-1846.948124849045
 30
0.0
 11
1068.955859128629
 21
-1847.948124849045
 31
0.0
  0
LINE
  5
1ED
330
1F
100
AcDbEntity
  8
Door D7 Tye 4 Dining
  6
Continuous2
 62
     5
420
      255
 60
     1
370
    -3
100
AcDbLine
 10
1069.120859128629
 20
-1839.849356218493
 30
0.0
 11
1068.955859128629
 21
-1838.849356218493
 31
0.0
  0
LINE
  5
1EE
330
1F
100
AcDbEntity
  8
Door D7 Tye 4 Dining
  6
Continuous2
 62
     5
420
      255
 60
     1
370
    -3
100
AcDbLine
 10
1068.790859128629
 20
-1839.849356218493
 30
0.0
 11
1068.955859128629
 21
-1838.849356218493
 31
0.0
  0
LINE
  5
1EF
330
1F
100
AcDbEntity
  8
Section H
  6
Continuous2
 62
    18
420
        0
 60
     1
370
    -3
100
AcDbLine
 10
-2799.359044719983
 20
-1676.906213196818
 30
0.0
 11
-2801.398594556252
 21
-1676.906213196818
 31
0.0
  0
LINE
  5
1F0
330
1F
100
AcDbEntity
  8
Section H
  6
Continuous2
 62
    18
420
        0
 60
     1
370
    -3
100
AcDbLine
 10
-2799.452794719983
 20
-1677.031213196818
 30
0.0
 11
-2799.484044719983
 21
-1676.906213196818
 31
0.0
  0
LINE
  5
1F1
330
1F
100
AcDbEntity
  8
Section H
  6
Continuous2
 62
    18
420
        0
 60
     1
370
    -3
100
AcDbLine
 10
-2799.515294719983
 20
-1677.031213196818
 30
0.0
 11
-2799.484044719983
 21
-1676.906213196818
 31
0.0
  0
LINE
  5
1F2
330
1F
100
AcDbEntity
  8
Section H
  6
Continuous2
 62
    18
420
        0
 60
     1
370
    -3
100
AcDbLine
 10
-2799.515294719983
 20
-1676.656198178209
 30
0.0
 11
-2799.484044719983
 21
-1676.781198178209
 31
0.0
  0
LINE
  5
1F3
330
1F
100
AcDbEntity
  8
Section H
  6
Continuous2
 62
    18
420
        0
 60
     1
370
    -3
100
AcDbLine
 10
-2799.452794719983
 20
-1676.656198178208
 30
0.0
 11
-2799.484044719983
 21
-1676.781198178209
 31
0.0
  0
LINE
  5
1F4
330
1F
100
AcDbEntity
  8
Section H
  6
Continuous2
 62
    18
420
        0
 60
     1
370
    -3
100
AcDbLine
 10
-2799.484044719983
 20
-1677.406213196818
 30
0.0
 11
-2799.484044719983
 21
-1676.906213196818
 31
0.0
  0
LINE
  5
1F5
330
1F
100
AcDbEntity
  8
Section H
  6
Continuous2
 62
    18
420
        0
 60
     1
370
    -3
100
AcDbLine
 10
-2799.452794719983
 20
-1677.031213196818
 30
0.0
 11
-2799.484044719983
 21
-1676.906213196818
 31
0.0
  0
LINE
  5
1F6
330
1F
100
AcDbEntity
  8
Section H
  6
Continuous2
 62
    18
420
        0
 60
     1
370
    -3
100
AcDbLine
 10
-2799.515294719983
 20
-1677.031213196818
 30
0.0
 11
-2799.484044719983
 21
-1676.906213196818
 31
0.0
  0
LINE
  5
1F7
330
1F
100
AcDbEntity
  8
Section H
  6
Continuous2
 62
    18
420
        0
 60
     1
370
    -3
100
AcDbLine
 10
-2799.515294719983
 20
-1676.656198178209
 30
0.0
 11
-2799.484044719983
 21
-1676.781198178209
 31
0.0
  0
LINE
  5
1F8
330
1F
100
AcDbEntity
  8
Section H
  6
Continuous2
 62
    18
420
        0
 60
     1
370
    -3
100
AcDbLine
 10
-2799.452794719983
 20
-1676.656198178208
 30
0.0
 11
-2799.484044719983
 21
-1676.781198178209
 31
0.0
  0
TEXT
  5
1F9
330
1F
100
AcDbEntity
  8
Section H
  6
Continuous2
 62
    18
420
        0
 60
     1
370
    -3
100
AcDbText
 10
-2798.608554523904
 20
-1676.4404529859
 30
0.0
 40
0.25
  1
1/8"
 41
0.5
  7
MCStick_A0.500000_S0.000000
100
AcDbText
  0
LINE
  5
1FB
330
1F
100
AcDbEntity
  8
Section H
  6
Continuous2
 62
    18
420
        0
 60
     1
370
    -3
100
AcDbLine
 10
-2799.484044719983
 20
-1676.3154529859
 30
0.0
 11
-2799.484044719983
 21
-1676.781198178209
 31
0.0
  0
LINE
  5
1FC
330
1F
100
AcDbEntity
  8
Section H
  6
Continuous2
 62
    18
420
        0
 60
     1
370
    -3
100
AcDbLine
 10
-2799.484044719983
 20
-1676.3154529859
 30
0.0
 11
-2798.984044719983
 21
-1676.3154529859
 31
0.0
  0
LINE
  5
1FD
330
1F
100
AcDbEntity
  8
Section H
  6
Continuous2
 62
    18
420
        0
 60
     1
370
    -3
100
AcDbLine
 10
-2799.452794719983
 20
-1677.031213196818
 30
0.0
 11
-2799.484044719983
 21
-1676.906213196818
 31
0.0
  0
LINE
  5
1FE
330
1F
100
AcDbEntity
  8
Section H
  6
Continuous2
 62
    18
420
        0
 60
     1
370
    -3
100
AcDbLine
 10
-2799.515294719983
 20
-1677.031213196818
 30
0.0
 11
-2799.484044719983
 21
-1676.906213196818
 31
0.0
  0
LINE
  5
1FF
330
1F
100
AcDbEntity
  8
Section H
  6
Continuous2
 62
    18
420
        0
 60
     1
370
    -3
100
AcDbLine
 10
-2799.515294719983
 20
-1676.656198178209
 30
0.0
 11
-2799.484044719983
 21
-1676.781198178209
 31
0.0
  0
LINE
  5
200
330
1F
100
AcDbEntity
  8
Section H
  6
Continuous2
 62
    18
420
        0
 60
     1
370
    -3
100
AcDbLine
 10
-2799.452794719983
 20
-1676.656198178208
 30
0.0
 11
-2799.484044719983
 21
-1676.781198178209
 31
0.0
  0
LINE
  5
201
330
1F
100
AcDbEntity
  8
Section H
  6
Continuous2
 62
    18
420
        0
 60
     1
370
    -3
100
AcDbLine
 10
-2799.359044719983
 20
-1676.781198178209
 30
0.0
 11
-2801.398577584727
 21
-1676.781198178209
 31
0.0
  0
LINE
  5
202
330
1F
100
AcDbEntity
  8
Section H
  6
Continuous2
 62
    18
420
        0
 60
     1
370
    -3
100
AcDbLine
 10
-2799.452794719983
 20
-1677.031213196818
 30
0.0
 11
-2799.484044719983
 21
-1676.906213196818
 31
0.0
  0
LINE
  5
203
330
1F
100
AcDbEntity
  8
Section H
  6
Continuous2
 62
    18
420
        0
 60
     1
370
    -3
100
AcDbLine
 10
-2799.515294719983
 20
-1677.031213196818
 30
0.0
 11
-2799.484044719983
 21
-1676.906213196818
 31
0.0
  0
LINE
  5
204
330
1F
100
AcDbEntity
  8
Section H
  6
Continuous2
 62
    18
420
        0
 60
     1
370
    -3
100
AcDbLine
 10
-2799.515294719983
 20
-1676.656198178209
 30
0.0
 11
-2799.484044719983
 21
-1676.781198178209
 31
0.0
  0
LINE
  5
205
330
1F
100
AcDbEntity
  8
Section H
  6
Continuous2
 62
    18
420
        0
 60
     1
370
    -3
100
AcDbLine
 10
-2799.452794719983
 20
-1676.656198178208
 30
0.0
 11
-2799.484044719983
 21
-1676.781198178209
 31
0.0
  0
LINE
  5
206
330
1F
100
AcDbEntity
  8
Door D7 Tye 4 Dining
  6
Continuous2
 62
     5
420
      255
 60
     1
370
    -3
100
AcDbLine
 10
-2807.571172012742
 20
-1614.483917167071
 30
0.0
 11
-2807.571172012742
 21
-1614.483917167071
 31
0.0
  0
LINE
  5
207
330
1F
100
AcDbEntity
  8
Door D7 Tye 4 Dining
  6
Continuous2
 62
     5
420
      255
 60
     1
370
    -3
100
AcDbLine
 10
-2804.499208709941
 20
-1614.233917167072
 30
0.0
 11
-2804.457583709941
 21
-1614.483917167072
 31
0.0
  0
LINE
  5
208
330
1F
100
AcDbEntity
  8
Door D7 Tye 4 Dining
  6
Continuous2
 62
     5
420
      255
 60
     1
370
    -3
100
AcDbLine
 10
-2804.415958709942
 20
-1614.233917167072
 30
0.0
 11
-2804.457583709941
 21
-1614.483917167072
 31
0.0
  0
LINE
  5
209
330
1F
100
AcDbEntity
  8
Door D7 Tye 4 Dining
  6
Continuous2
 62
     5
420
      255
 60
     1
370
    -3
100
AcDbLine
 10
-2804.41595870962
 20
-1613.483918172879
 30
0.0
 11
-2804.457583709941
 21
-1613.233918172932
 31
0.0
  0
LINE
  5
20A
330
1F
100
AcDbEntity
  8
Door D7 Tye 4 Dining
  6
Continuous2
 62
     5
420
      255
 60
     1
370
    -3
100
AcDbLine
 10
-2804.49920870962
 20
-1613.483918172986
 30
0.0
 11
-2804.457583709941
 21
-1613.233918172932
 31
0.0
  0
LINE
  5
20B
330
1F
100
AcDbEntity
  8
Door D7 Tye 4 Dining
  6
Continuous2
 62
     5
420
      255
 60
     1
370
    -3
100
AcDbLine
 10
-2804.457583709941
 20
-1613.234168172932
 30
0.0
 11
-2804.457583709941
 21
-1614.483917167072
 31
0.0
  0
LINE
  5
20C
330
1F
100
AcDbEntity
  8
Door D7 Tye 4 Dining
  6
Continuous2
 62
     5
420
      255
 60
     1
370
    -3
100
AcDbLine
 10
-2804.499208709941
 20
-1614.233917167072
 30
0.0
 11
-2804.457583709941
 21
-1614.483917167072
 31
0.0
  0
LINE
  5
20D
330
1F
100
AcDbEntity
  8
Door D7 Tye 4 Dining
  6
Continuous2
 62
     5
420
      255
 60
     1
370
    -3
100
AcDbLine
 10
-2804.415958709942
 20
-1614.233917167072
 30
0.0
 11
-2804.457583709941
 21
-1614.483917167072
 31
0.0
  0
LINE
  5
20E
330
1F
100
AcDbEntity
  8
Door D7 Tye 4 Dining
  6
Continuous2
 62
     5
420
      255
 60
     1
370
    -3
100
AcDbLine
 10
-2804.41595870962
 20
-1613.483918172879
 30
0.0
 11
-2804.457583709941
 21
-1613.233918172932
 31
0.0
  0
LINE
  5
20F
330
1F
100
AcDbEntity
  8
Door D7 Tye 4 Dining
  6
Continuous2
 62
     5
420
      255
 60
     1
370
    -3
100
AcDbLine
 10
-2804.49920870962
 20
-1613.483918172986
 30
0.0
 11
-2804.457583709941
 21
-1613.233918172932
 31
0.0
  0
TEXT
  5
210
330
1F
100
AcDbEntity
  8
Door D7 Tye 4 Dining
  6
Continuous2
 62
     5
420
      255
 60
     1
370
    -3
100
AcDbText
 10
-2804.332583709941
 20
-1613.046418172932
 30
0.0
 40
0.25
  1
1 1/4
 50
89.99999999999994
 41
0.625
  7
MCStick_A0.625000_S0.000000
100
AcDbText
  0
LINE
  5
211
330
1F
100
AcDbEntity
  8
Door D7 Tye 4 Dining
  6
Continuous2
 62
     5
420
      255
 60
     1
370
    -3
100
AcDbLine
 10
-2804.457583709941
 20
-1613.234168172932
 30
0.0
 11
-2804.457583709941
 21
-1613.233918172932
 31
0.0
  0
LINE
  5
212
330
1F
100
AcDbEntity
  8
Door D7 Tye 4 Dining
  6
Continuous2
 62
     5
420
      255
 60
     1
370
    -3
100
AcDbLine
 10
-2804.457583709941
 20
-1613.234168172932
 30
0.0
 11
-2804.457583709941
 21
-1613.233918172932
 31
0.0
  0
LINE
  5
213
330
1F
100
AcDbEntity
  8
Door D7 Tye 4 Dining
  6
Continuous2
 62
     5
420
      255
 60
     1
370
    -3
100
AcDbLine
 10
-2804.499208709941
 20
-1614.233917167072
 30
0.0
 11
-2804.457583709941
 21
-1614.483917167072
 31
0.0
  0
LINE
  5
214
330
1F
100
AcDbEntity
  8
Door D7 Tye 4 Dining
  6
Continuous2
 62
     5
420
      255
 60
     1
370
    -3
100
AcDbLine
 10
-2804.415958709942
 20
-1614.233917167072
 30
0.0
 11
-2804.457583709941
 21
-1614.483917167072
 31
0.0
  0
LINE
  5
215
330
1F
100
AcDbEntity
  8
Door D7 Tye 4 Dining
  6
Continuous2
 62
     5
420
      255
 60
     1
370
    -3
100
AcDbLine
 10
-2804.41595870962
 20
-1613.483918172879
 30
0.0
 11
-2804.457583709941
 21
-1613.233918172932
 31
0.0
  0
LINE
  5
216
330
1F
100
AcDbEntity
  8
Door D7 Tye 4 Dining
  6
Continuous2
 62
     5
420
      255
 60
     1
370
    -3
100
AcDbLine
 10
-2804.49920870962
 20
-1613.483918172986
 30
0.0
 11
-2804.457583709941
 21
-1613.233918172932
 31
0.0
  0
LINE
  5
217
330
1F
100
AcDbEntity
  8
Door D7 Tye 4 Dining
  6
Continuous2
 62
     5
420
      255
 60
     1
370
    -3
100
AcDbLine
 10
-2807.571172012742
 20
-1613.233918172932
 30
0.0
 11
-2807.571172012742
 21
-1613.233918172932
 31
0.0
  0
LINE
  5
218
330
1F
100
AcDbEntity
  8
Door D7 Tye 4 Dining
  6
Continuous2
 62
     5
420
      255
 60
     1
370
    -3
100
AcDbLine
 10
-2804.499208709941
 20
-1614.233917167072
 30
0.0
 11
-2804.457583709941
 21
-1614.483917167072
 31
0.0
  0
LINE
  5
219
330
1F
100
AcDbEntity
  8
Door D7 Tye 4 Dining
  6
Continuous2
 62
     5
420
      255
 60
     1
370
    -3
100
AcDbLine
 10
-2804.415958709942
 20
-1614.233917167072
 30
0.0
 11
-2804.457583709941
 21
-1614.483917167072
 31
0.0
  0
LINE
  5
21A
330
1F
100
AcDbEntity
  8
Door D7 Tye 4 Dining
  6
Continuous2
 62
     5
420
      255
 60
     1
370
    -3
100
AcDbLine
 10
-2804.41595870962
 20
-1613.483918172879
 30
0.0
 11
-2804.457583709941
 21
-1613.233918172932
 31
0.0
  0
LINE
  5
21B
330
1F
100
AcDbEntity
  8
Door D7 Tye 4 Dining
  6
Continuous2
 62
     5
420
      255
 60
     1
370
    -3
100
AcDbLine
 10
-2804.49920870962
 20
-1613.483918172986
 30
0.0
 11
-2804.457583709941
 21
-1613.233918172932
 31
0.0
  0
LINE
  5
21C
330
1F
100
AcDbEntity
  8
Generic Sections
  6
Continuous2
 62
    18
420
        0
 60
     1
370
    -3
100
AcDbLine
 10
-418.6775394904084
 20
-4.907061180718212
 30
0.0
 11
-418.6775394904084
 21
-5.142353121573287
 31
0.0
  0
LINE
  5
21D
330
1F
100
AcDbEntity
  8
Generic Sections
  6
Continuous2
 62
    18
420
        0
 60
     1
370
    -3
100
AcDbLine
 10
-418.5525394904084
 20
-4.948748680718213
 30
0.0
 11
-418.6775394904084
 21
-4.969561180718212
 31
0.0
  0
LINE
  5
21E
330
1F
100
AcDbEntity
  8
Generic Sections
  6
Continuous2
 62
    18
420
        0
 60
     1
370
    -3
100
AcDbLine
 10
-418.5525394904084
 20
-4.990373680718212
 30
0.0
 11
-418.6775394904084
 21
-4.969561180718212
 31
0.0
  0
LINE
  5
21F
330
1F
100
AcDbEntity
  8
Generic Sections
  6
Continuous2
 62
    18
420
        0
 60
     1
370
    -3
100
AcDbLine
 10
-418.0525394904084
 20
-4.990373680718212
 30
0.0
 11
-417.9275394904084
 21
-4.969561180718212
 31
0.0
  0
LINE
  5
220
330
1F
100
AcDbEntity
  8
Generic Sections
  6
Continuous2
 62
    18
420
        0
 60
     1
370
    -3
100
AcDbLine
 10
-418.0525394904084
 20
-4.948748680718212
 30
0.0
 11
-417.9275394904084
 21
-4.969561180718212
 31
0.0
  0
LINE
  5
221
330
1F
100
AcDbEntity
  8
Generic Sections
  6
Continuous2
 62
    18
420
        0
 60
     1
370
    -3
100
AcDbLine
 10
-418.5995983139379
 20
-4.969561180718212
 30
0.0
 11
-418.6775394904084
 21
-4.969561180718212
 31
0.0
  0
LINE
  5
222
330
1F
100
AcDbEntity
  8
Generic Sections
  6
Continuous2
 62
    18
420
        0
 60
     1
370
    -3
100
AcDbLine
 10
-418.5525394904084
 20
-4.948748680718213
 30
0.0
 11
-418.6775394904084
 21
-4.969561180718212
 31
0.0
  0
LINE
  5
223
330
1F
100
AcDbEntity
  8
Generic Sections
  6
Continuous2
 62
    18
420
        0
 60
     1
370
    -3
100
AcDbLine
 10
-418.5525394904084
 20
-4.990373680718212
 30
0.0
 11
-418.6775394904084
 21
-4.969561180718212
 31
0.0
  0
LINE
  5
224
330
1F
100
AcDbEntity
  8
Generic Sections
  6
Continuous2
 62
    18
420
        0
 60
     1
370
    -3
100
AcDbLine
 10
-418.0525394904084
 20
-4.990373680718212
 30
0.0
 11
-417.9275394904084
 21
-4.969561180718212
 31
0.0
  0
LINE
  5
225
330
1F
100
AcDbEntity
  8
Generic Sections
  6
Continuous2
 62
    18
420
        0
 60
     1
370
    -3
100
AcDbLine
 10
-418.0525394904084
 20
-4.948748680718212
 30
0.0
 11
-417.9275394904084
 21
-4.969561180718212
 31
0.0
  0
TEXT
  5
226
330
1F
100
AcDbEntity
  8
Generic Sections
  6
Continuous2
 62
    18
420
        0
 60
     1
370
    -3
100
AcDbText
 10
-418.3995983139378
 20
-5.032061180718212
 30
0.0
 40
0.125
  1
3/4
 41
0.5
  7
MCStick_A0.500000_S0.000000
100
AcDbText
  0
LINE
  5
227
330
1F
100
AcDbEntity
  8
Generic Sections
  6
Continuous2
 62
    18
420
        0
 60
     1
370
    -3
100
AcDbLine
 10
-417.9870983139378
 20
-4.969561180718212
 30
0.0
 11
-417.9275394904084
 21
-4.969561180718212
 31
0.0
  0
LINE
  5
228
330
1F
100
AcDbEntity
  8
Generic Sections
  6
Continuous2
 62
    18
420
        0
 60
     1
370
    -3
100
AcDbLine
 10
-418.5525394904084
 20
-4.948748680718213
 30
0.0
 11
-418.6775394904084
 21
-4.969561180718212
 31
0.0
  0
LINE
  5
229
330
1F
100
AcDbEntity
  8
Generic Sections
  6
Continuous2
 62
    18
420
        0
 60
     1
370
    -3
100
AcDbLine
 10
-418.5525394904084
 20
-4.990373680718212
 30
0.0
 11
-418.6775394904084
 21
-4.969561180718212
 31
0.0
  0
LINE
  5
22A
330
1F
100
AcDbEntity
  8
Generic Sections
  6
Continuous2
 62
    18
420
        0
 60
     1
370
    -3
100
AcDbLine
 10
-418.0525394904084
 20
-4.990373680718212
 30
0.0
 11
-417.9275394904084
 21
-4.969561180718212
 31
0.0
  0
LINE
  5
22B
330
1F
100
AcDbEntity
  8
Generic Sections
  6
Continuous2
 62
    18
420
        0
 60
     1
370
    -3
100
AcDbLine
 10
-418.0525394904084
 20
-4.948748680718212
 30
0.0
 11
-417.9275394904084
 21
-4.969561180718212
 31
0.0
  0
LINE
  5
22C
330
1F
100
AcDbEntity
  8
Generic Sections
  6
Continuous2
 62
    18
420
        0
 60
     1
370
    -3
100
AcDbLine
 10
-417.9275394904084
 20
-4.907061180718212
 30
0.0
 11
-417.9275394904084
 21
-5.89473495140704
 31
0.0
  0
LINE
  5
22D
330
1F
100
AcDbEntity
  8
Generic Sections
  6
Continuous2
 62
    18
420
        0
 60
     1
370
    -3
100
AcDbLine
 10
-418.5525394904084
 20
-4.948748680718213
 30
0.0
 11
-418.6775394904084
 21
-4.969561180718212
 31
0.0
  0
LINE
  5
22E
330
1F
100
AcDbEntity
  8
Generic Sections
  6
Continuous2
 62
    18
420
        0
 60
     1
370
    -3
100
AcDbLine
 10
-418.5525394904084
 20
-4.990373680718212
 30
0.0
 11
-418.6775394904084
 21
-4.969561180718212
 31
0.0
  0
LINE
  5
22F
330
1F
100
AcDbEntity
  8
Generic Sections
  6
Continuous2
 62
    18
420
        0
 60
     1
370
    -3
100
AcDbLine
 10
-418.0525394904084
 20
-4.990373680718212
 30
0.0
 11
-417.9275394904084
 21
-4.969561180718212
 31
0.0
  0
LINE
  5
230
330
1F
100
AcDbEntity
  8
Generic Sections
  6
Continuous2
 62
    18
420
        0
 60
     1
370
    -3
100
AcDbLine
 10
-418.0525394904084
 20
-4.948748680718212
 30
0.0
 11
-417.9275394904084
 21
-4.969561180718212
 31
0.0
  0
LINE
  5
231
330
1F
100
AcDbEntity
  8
D2
  6
Continuous2
 62
   176
420
      128
 60
     1
370
    -3
100
AcDbLine
 10
-399.1115901279468
 20
-54.46535449202141
 30
0.0
 11
-397.0507962667887
 21
-54.46535449202142
 31
0.0
  0
LINE
  5
232
330
1F
100
AcDbEntity
  8
D2
  6
Continuous2
 62
   176
420
      128
 60
     1
370
    -3
100
AcDbLine
 10
-399.0282151279468
 20
-54.21535449202141
 30
0.0
 11
-398.9865901279468
 21
-54.46535449202141
 31
0.0
  0
LINE
  5
233
330
1F
100
AcDbEntity
  8
D2
  6
Continuous2
 62
   176
420
      128
 60
     1
370
    -3
100
AcDbLine
 10
-398.9449651279468
 20
-54.21535449202141
 30
0.0
 11
-398.9865901279468
 21
-54.46535449202141
 31
0.0
  0
LINE
  5
234
330
1F
100
AcDbEntity
  8
D2
  6
Continuous2
 62
   176
420
      128
 60
     1
370
    -3
100
AcDbLine
 10
-398.9449651279468
 20
-50.46535686262691
 30
0.0
 11
-398.9865901279468
 21
-50.21535686262691
 31
0.0
  0
LINE
  5
235
330
1F
100
AcDbEntity
  8
D2
  6
Continuous2
 62
   176
420
      128
 60
     1
370
    -3
100
AcDbLine
 10
-399.0282151279468
 20
-50.46535686262691
 30
0.0
 11
-398.9865901279468
 21
-50.21535686262691
 31
0.0
  0
LINE
  5
236
330
1F
100
AcDbEntity
  8
D2
  6
Continuous2
 62
   176
420
      128
 60
     1
370
    -3
100
AcDbLine
 10
-398.9865901279468
 20
-51.75086738989508
 30
0.0
 11
-398.9865901279468
 21
-54.46535449202141
 31
0.0
  0
LINE
  5
237
330
1F
100
AcDbEntity
  8
D2
  6
Continuous2
 62
   176
420
      128
 60
     1
370
    -3
100
AcDbLine
 10
-399.0282151279468
 20
-54.21535449202141
 30
0.0
 11
-398.9865901279468
 21
-54.46535449202141
 31
0.0
  0
LINE
  5
238
330
1F
100
AcDbEntity
  8
D2
  6
Continuous2
 62
   176
420
      128
 60
     1
370
    -3
100
AcDbLine
 10
-398.9449651279468
 20
-54.21535449202141
 30
0.0
 11
-398.9865901279468
 21
-54.46535449202141
 31
0.0
  0
LINE
  5
239
330
1F
100
AcDbEntity
  8
D2
  6
Continuous2
 62
   176
420
      128
 60
     1
370
    -3
100
AcDbLine
 10
-398.9449651279468
 20
-50.46535686262691
 30
0.0
 11
-398.9865901279468
 21
-50.21535686262691
 31
0.0
  0
LINE
  5
23A
330
1F
100
AcDbEntity
  8
D2
  6
Continuous2
 62
   176
420
      128
 60
     1
370
    -3
100
AcDbLine
 10
-399.0282151279468
 20
-50.46535686262691
 30
0.0
 11
-398.9865901279468
 21
-50.21535686262691
 31
0.0
  0
TEXT
  5
23B
330
1F
100
AcDbEntity
  8
D2
  6
Continuous2
 62
   176
420
      128
 60
     1
370
    -3
100
AcDbText
 10
-399.3363450299076
 20
-51.34762219758741
 30
0.0
 40
0.25
  1
4 1/4"
 41
0.5
  7
MCStick_A0.500000_S0.000000
100
AcDbText
  0
LINE
  5
23C
330
1F
100
AcDbEntity
  8
D2
  6
Continuous2
 62
   176
420
      128
 60
     1
370
    -3
100
AcDbLine
 10
-398.9865901279468
 20
-50.69437700527973
 30
0.0
 11
-398.9865901279468
 21
-50.21535686262691
 31
0.0
  0
LINE
  5
23D
330
1F
100
AcDbEntity
  8
D2
  6
Continuous2
 62
   176
420
      128
 60
     1
370
    -3
100
AcDbLine
 10
-399.0282151279468
 20
-54.21535449202141
 30
0.0
 11
-398.9865901279468
 21
-54.46535449202141
 31
0.0
  0
LINE
  5
23E
330
1F
100
AcDbEntity
  8
D2
  6
Continuous2
 62
   176
420
      128
 60
     1
370
    -3
100
AcDbLine
 10
-398.9449651279468
 20
-54.21535449202141
 30
0.0
 11
-398.9865901279468
 21
-54.46535449202141
 31
0.0
  0
LINE
  5
23F
330
1F
100
AcDbEntity
  8
D2
  6
Continuous2
 62
   176
420
      128
 60
     1
370
    -3
100
AcDbLine
 10
-398.9449651279468
 20
-50.46535686262691
 30
0.0
 11
-398.9865901279468
 21
-50.21535686262691
 31
0.0
  0
LINE
  5
240
330
1F
100
AcDbEntity
  8
D2
  6
Continuous2
 62
   176
420
      128
 60
     1
370
    -3
100
AcDbLine
 10
-399.0282151279468
 20
-50.46535686262691
 30
0.0
 11
-398.9865901279468
 21
-50.21535686262691
 31
0.0
  0
LINE
  5
241
330
1F
100
AcDbEntity
  8
D2
  6
Continuous2
 62
   176
420
      128
 60
     1
370
    -3
100
AcDbLine
 10
-399.1115901279468
 20
-50.21535686262691
 30
0.0
 11
-397.0507962667886
 21
-50.21535686262689
 31
0.0
  0
LINE
  5
242
330
1F
100
AcDbEntity
  8
D2
  6
Continuous2
 62
   176
420
      128
 60
     1
370
    -3
100
AcDbLine
 10
-399.0282151279468
 20
-54.21535449202141
 30
0.0
 11
-398.9865901279468
 21
-54.46535449202141
 31
0.0
  0
LINE
  5
243
330
1F
100
AcDbEntity
  8
D2
  6
Continuous2
 62
   176
420
      128
 60
     1
370
    -3
100
AcDbLine
 10
-398.9449651279468
 20
-54.21535449202141
 30
0.0
 11
-398.9865901279468
 21
-54.46535449202141
 31
0.0
  0
LINE
  5
244
330
1F
100
AcDbEntity
  8
D2
  6
Continuous2
 62
   176
420
      128
 60
     1
370
    -3
100
AcDbLine
 10
-398.9449651279468
 20
-50.46535686262691
 30
0.0
 11
-398.9865901279468
 21
-50.21535686262691
 31
0.0
  0
LINE
  5
245
330
1F
100
AcDbEntity
  8
D2
  6
Continuous2
 62
   176
420
      128
 60
     1
370
    -3
100
AcDbLine
 10
-399.0282151279468
 20
-50.46535686262691
 30
0.0
 11
-398.9865901279468
 21
-50.21535686262691
 31
0.0
  0
LINE
  5
246
330
1F
100
AcDbEntity
  8
Generic Sections
  6
Continuous2
 62
    18
420
        0
 60
     1
370
    -3
100
AcDbLine
 10
-362.8302957539717
 20
0.0540876292389145
 30
0.0
 11
-362.5503165815213
 21
0.0540876292389143
 31
0.0
  0
LINE
  5
247
330
1F
100
AcDbEntity
  8
Generic Sections
  6
Continuous2
 62
    18
420
        0
 60
     1
370
    -3
100
AcDbLine
 10
-362.8510874239716
 20
0.3040876292389145
 30
0.0
 11
-362.8094624239716
 21
0.0540876292389145
 31
0.0
  0
LINE
  5
248
330
1F
100
AcDbEntity
  8
Generic Sections
  6
Continuous2
 62
    18
420
        0
 60
     1
370
    -3
100
AcDbLine
 10
-362.7678374239716
 20
0.3040876292389145
 30
0.0
 11
-362.8094624239716
 21
0.0540876292389145
 31
0.0
  0
LINE
  5
249
330
1F
100
AcDbEntity
  8
Generic Sections
  6
Continuous2
 62
    18
420
        0
 60
     1
370
    -3
100
AcDbLine
 10
-362.7678374239716
 20
1.304087629238915
 30
0.0
 11
-362.8094624239716
 21
1.554087629238915
 31
0.0
  0
LINE
  5
24A
330
1F
100
AcDbEntity
  8
Generic Sections
  6
Continuous2
 62
    18
420
        0
 60
     1
370
    -3
100
AcDbLine
 10
-362.8510874239716
 20
1.304087629238915
 30
0.0
 11
-362.8094624239716
 21
1.554087629238915
 31
0.0
  0
LINE
  5
24B
330
1F
100
AcDbEntity
  8
Generic Sections
  6
Continuous2
 62
    18
420
        0
 60
     1
370
    -3
100
AcDbLine
 10
-362.8094624239716
 20
0.5274650330850579
 30
0.0
 11
-362.8094624239716
 21
0.0540876292389145
 31
0.0
  0
LINE
  5
24C
330
1F
100
AcDbEntity
  8
Generic Sections
  6
Continuous2
 62
    18
420
        0
 60
     1
370
    -3
100
AcDbLine
 10
-362.8510874239716
 20
0.3040876292389145
 30
0.0
 11
-362.8094624239716
 21
0.0540876292389145
 31
0.0
  0
LINE
  5
24D
330
1F
100
AcDbEntity
  8
Generic Sections
  6
Continuous2
 62
    18
420
        0
 60
     1
370
    -3
100
AcDbLine
 10
-362.7678374239716
 20
0.3040876292389145
 30
0.0
 11
-362.8094624239716
 21
0.0540876292389145
 31
0.0
  0
LINE
  5
24E
330
1F
100
AcDbEntity
  8
Generic Sections
  6
Continuous2
 62
    18
420
        0
 60
     1
370
    -3
100
AcDbLine
 10
-362.7678374239716
 20
1.304087629238915
 30
0.0
 11
-362.8094624239716
 21
1.554087629238915
 31
0.0
  0
LINE
  5
24F
330
1F
100
AcDbEntity
  8
Generic Sections
  6
Continuous2
 62
    18
420
        0
 60
     1
370
    -3
100
AcDbLine
 10
-362.8510874239716
 20
1.304087629238915
 30
0.0
 11
-362.8094624239716
 21
1.554087629238915
 31
0.0
  0
TEXT
  5
250
330
1F
100
AcDbEntity
  8
Generic Sections
  6
Continuous2
 62
    18
420
        0
 60
     1
370
    -3
100
AcDbText
 10
-363.0475138945599
 20
0.7415876292389145
 30
0.0
 40
0.125
  1
1 1/2"
 41
0.625
  7
MCStick_A0.625000_S0.000000
100
AcDbText
  0
LINE
  5
251
330
1F
100
AcDbEntity
  8
Generic Sections
  6
Continuous2
 62
    18
420
        0
 60
     1
370
    -3
100
AcDbLine
 10
-362.8094624239716
 20
1.080710225392771
 30
0.0
 11
-362.8094624239716
 21
1.554087629238915
 31
0.0
  0
LINE
  5
252
330
1F
100
AcDbEntity
  8
Generic Sections
  6
Continuous2
 62
    18
420
        0
 60
     1
370
    -3
100
AcDbLine
 10
-362.8510874239716
 20
0.3040876292389145
 30
0.0
 11
-362.8094624239716
 21
0.0540876292389145
 31
0.0
  0
LINE
  5
253
330
1F
100
AcDbEntity
  8
Generic Sections
  6
Continuous2
 62
    18
420
        0
 60
     1
370
    -3
100
AcDbLine
 10
-362.7678374239716
 20
0.3040876292389145
 30
0.0
 11
-362.8094624239716
 21
0.0540876292389145
 31
0.0
  0
LINE
  5
254
330
1F
100
AcDbEntity
  8
Generic Sections
  6
Continuous2
 62
    18
420
        0
 60
     1
370
    -3
100
AcDbLine
 10
-362.7678374239716
 20
1.304087629238915
 30
0.0
 11
-362.8094624239716
 21
1.554087629238915
 31
0.0
  0
LINE
  5
255
330
1F
100
AcDbEntity
  8
Generic Sections
  6
Continuous2
 62
    18
420
        0
 60
     1
370
    -3
100
AcDbLine
 10
-362.8510874239716
 20
1.304087629238915
 30
0.0
 11
-362.8094624239716
 21
1.554087629238915
 31
0.0
  0
LINE
  5
256
330
1F
100
AcDbEntity
  8
Generic Sections
  6
Continuous2
 62
    18
420
        0
 60
     1
370
    -3
100
AcDbLine
 10
-362.8302957539717
 20
1.554087629238915
 30
0.0
 11
-362.4253165815213
 21
1.554087629238913
 31
0.0
  0
LINE
  5
257
330
1F
100
AcDbEntity
  8
Generic Sections
  6
Continuous2
 62
    18
420
        0
 60
     1
370
    -3
100
AcDbLine
 10
-362.8510874239716
 20
0.3040876292389145
 30
0.0
 11
-362.8094624239716
 21
0.0540876292389145
 31
0.0
  0
LINE
  5
258
330
1F
100
AcDbEntity
  8
Generic Sections
  6
Continuous2
 62
    18
420
        0
 60
     1
370
    -3
100
AcDbLine
 10
-362.7678374239716
 20
0.3040876292389145
 30
0.0
 11
-362.8094624239716
 21
0.0540876292389145
 31
0.0
  0
LINE
  5
259
330
1F
100
AcDbEntity
  8
Generic Sections
  6
Continuous2
 62
    18
420
        0
 60
     1
370
    -3
100
AcDbLine
 10
-362.7678374239716
 20
1.304087629238915
 30
0.0
 11
-362.8094624239716
 21
1.554087629238915
 31
0.0
  0
LINE
  5
25A
330
1F
100
AcDbEntity
  8
Generic Sections
  6
Continuous2
 62
    18
420
        0
 60
     1
370
    -3
100
AcDbLine
 10
-362.8510874239716
 20
1.304087629238915
 30
0.0
 11
-362.8094624239716
 21
1.554087629238915
 31
0.0
  0
LINE
  5
25B
330
1F
100
AcDbEntity
  8
Generic Sections
  6
Continuous2
 62
    18
420
        0
 60
     1
370
    -3
100
AcDbLine
 10
-362.5086499115213
 20
-0.2646172942222282
 30
0.0
 11
-362.5086499115213
 21
0.0124209592389137
 31
0.0
  0
LINE
  5
25C
330
1F
100
AcDbEntity
  8
Generic Sections
  6
Continuous2
 62
    18
420
        0
 60
     1
370
    -3
100
AcDbLine
 10
-362.2586499115213
 20
-0.202158964222228
 30
0.0
 11
-362.5086499115213
 21
-0.2437839642222279
 31
0.0
  0
LINE
  5
25D
330
1F
100
AcDbEntity
  8
Generic Sections
  6
Continuous2
 62
    18
420
        0
 60
     1
370
    -3
100
AcDbLine
 10
-362.2586499115213
 20
-0.2854089642222279
 30
0.0
 11
-362.5086499115213
 21
-0.2437839642222279
 31
0.0
  0
LINE
  5
25E
330
1F
100
AcDbEntity
  8
Generic Sections
  6
Continuous2
 62
    18
420
        0
 60
     1
370
    -3
100
AcDbLine
 10
-357.0086499115213
 20
-0.2854089642222279
 30
0.0
 11
-356.7586499115213
 21
-0.2437839642222279
 31
0.0
  0
LINE
  5
25F
330
1F
100
AcDbEntity
  8
Generic Sections
  6
Continuous2
 62
    18
420
        0
 60
     1
370
    -3
100
AcDbLine
 10
-357.0086499115213
 20
-0.2021589642222279
 30
0.0
 11
-356.7586499115213
 21
-0.2437839642222279
 31
0.0
  0
LINE
  5
260
330
1F
100
AcDbEntity
  8
Generic Sections
  6
Continuous2
 62
    18
420
        0
 60
     1
370
    -3
100
AcDbLine
 10
-360.1140159324113
 20
-0.2437839642222279
 30
0.0
 11
-362.5086499115213
 21
-0.2437839642222279
 31
0.0
  0
LINE
  5
261
330
1F
100
AcDbEntity
  8
Generic Sections
  6
Continuous2
 62
    18
420
        0
 60
     1
370
    -3
100
AcDbLine
 10
-362.2586499115213
 20
-0.202158964222228
 30
0.0
 11
-362.5086499115213
 21
-0.2437839642222279
 31
0.0
  0
LINE
  5
262
330
1F
100
AcDbEntity
  8
Generic Sections
  6
Continuous2
 62
    18
420
        0
 60
     1
370
    -3
100
AcDbLine
 10
-362.2586499115213
 20
-0.2854089642222279
 30
0.0
 11
-362.5086499115213
 21
-0.2437839642222279
 31
0.0
  0
LINE
  5
263
330
1F
100
AcDbEntity
  8
Generic Sections
  6
Continuous2
 62
    18
420
        0
 60
     1
370
    -3
100
AcDbLine
 10
-357.0086499115213
 20
-0.2854089642222279
 30
0.0
 11
-356.7586499115213
 21
-0.2437839642222279
 31
0.0
  0
LINE
  5
264
330
1F
100
AcDbEntity
  8
Generic Sections
  6
Continuous2
 62
    18
420
        0
 60
     1
370
    -3
100
AcDbLine
 10
-357.0086499115213
 20
-0.2021589642222279
 30
0.0
 11
-356.7586499115213
 21
-0.2437839642222279
 31
0.0
  0
TEXT
  5
265
330
1F
100
AcDbEntity
  8
Generic Sections
  6
Continuous2
 62
    18
420
        0
 60
     1
370
    -3
100
AcDbText
 10
-359.9140159324113
 20
-0.3062839642222279
 30
0.0
 40
0.125
  1
72"
 41
0.625
  7
MCStick_A0.625000_S0.000000
100
AcDbText
  0
LINE
  5
266
330
1F
100
AcDbEntity
  8
Generic Sections
  6
Continuous2
 62
    18
420
        0
 60
     1
370
    -3
100
AcDbLine
 10
-359.4563566186858
 20
-0.2437839642222279
 30
0.0
 11
-356.7586499115213
 21
-0.2437839642222279
 31
0.0
  0
LINE
  5
267
330
1F
100
AcDbEntity
  8
Generic Sections
  6
Continuous2
 62
    18
420
        0
 60
     1
370
    -3
100
AcDbLine
 10
-362.2586499115213
 20
-0.202158964222228
 30
0.0
 11
-362.5086499115213
 21
-0.2437839642222279
 31
0.0
  0
LINE
  5
268
330
1F
100
AcDbEntity
  8
Generic Sections
  6
Continuous2
 62
    18
420
        0
 60
     1
370
    -3
100
AcDbLine
 10
-362.2586499115213
 20
-0.2854089642222279
 30
0.0
 11
-362.5086499115213
 21
-0.2437839642222279
 31
0.0
  0
LINE
  5
269
330
1F
100
AcDbEntity
  8
Generic Sections
  6
Continuous2
 62
    18
420
        0
 60
     1
370
    -3
100
AcDbLine
 10
-357.0086499115213
 20
-0.2854089642222279
 30
0.0
 11
-356.7586499115213
 21
-0.2437839642222279
 31
0.0
  0
LINE
  5
26A
330
1F
100
AcDbEntity
  8
Generic Sections
  6
Continuous2
 62
    18
420
        0
 60
     1
370
    -3
100
AcDbLine
 10
-357.0086499115213
 20
-0.2021589642222279
 30
0.0
 11
-356.7586499115213
 21
-0.2437839642222279
 31
0.0
  0
LINE
  5
26B
330
1F
100
AcDbEntity
  8
Generic Sections
  6
Continuous2
 62
    18
420
        0
 60
     1
370
    -3
100
AcDbLine
 10
-356.7586499115213
 20
-0.2646172942222282
 30
0.0
 11
-356.7586499115213
 21
0.0124209592389137
 31
0.0
  0
LINE
  5
26C
330
1F
100
AcDbEntity
  8
Generic Sections
  6
Continuous2
 62
    18
420
        0
 60
     1
370
    -3
100
AcDbLine
 10
-362.2586499115213
 20
-0.202158964222228
 30
0.0
 11
-362.5086499115213
 21
-0.2437839642222279
 31
0.0
  0
LINE
  5
26D
330
1F
100
AcDbEntity
  8
Generic Sections
  6
Continuous2
 62
    18
420
        0
 60
     1
370
    -3
100
AcDbLine
 10
-362.2586499115213
 20
-0.2854089642222279
 30
0.0
 11
-362.5086499115213
 21
-0.2437839642222279
 31
0.0
  0
LINE
  5
26E
330
1F
100
AcDbEntity
  8
Generic Sections
  6
Continuous2
 62
    18
420
        0
 60
     1
370
    -3
100
AcDbLine
 10
-357.0086499115213
 20
-0.2854089642222279
 30
0.0
 11
-356.7586499115213
 21
-0.2437839642222279
 31
0.0
  0
LINE
  5
26F
330
1F
100
AcDbEntity
  8
Generic Sections
  6
Continuous2
 62
    18
420
        0
 60
     1
370
    -3
100
AcDbLine
 10
-357.0086499115213
 20
-0.2021589642222279
 30
0.0
 11
-356.7586499115213
 21
-0.2437839642222279
 31
0.0
  0
LINE
  5
270
330
1F
100
AcDbEntity
  8
Generic Sections
  6
Continuous2
 62
    18
420
        0
 60
     1
370
    -3
100
AcDbLine
 10
-442.4271010238823
 20
124.8051537994908
 30
0.0
 11
-459.8578113145127
 21
124.5258154935513
 31
0.0
  0
LINE
  5
271
330
1F
100
AcDbEntity
  8
Generic Sections
  6
Continuous2
 62
    18
420
        0
 60
     1
370
    -3
100
AcDbLine
 10
-442.4023061273487
 20
124.5555190530166
 30
0.0
 11
-442.4479316791774
 21
124.8048199748867
 31
0.0
  0
LINE
  5
272
330
1F
100
AcDbEntity
  8
Generic Sections
  6
Continuous2
 62
    18
420
        0
 60
     1
370
    -3
100
AcDbLine
 10
-442.4855454392261
 20
124.5541850896852
 30
0.0
 11
-442.4479316791774
 21
124.8048199748867
 31
0.0
  0
LINE
  5
273
330
1F
100
AcDbEntity
  8
Generic Sections
  6
Continuous2
 62
    18
420
        0
 60
     1
370
    -3
100
AcDbLine
 10
-441.2435572310062
 20
47.05412089675695
 30
0.0
 11
-441.1979316791774
 21
46.80481997488677
 31
0.0
  0
LINE
  5
274
330
1F
100
AcDbEntity
  8
Generic Sections
  6
Continuous2
 62
    18
420
        0
 60
     1
370
    -3
100
AcDbLine
 10
-441.1603179191287
 20
47.05545486008833
 30
0.0
 11
-441.1979316791774
 21
46.80481997488677
 31
0.0
  0
LINE
  5
275
330
1F
100
AcDbEntity
  8
Generic Sections
  6
Continuous2
 62
    18
420
        0
 60
     1
370
    -3
100
AcDbLine
 10
-442.066123696932
 20
100.9800018827731
 30
0.0
 11
-442.4479316791774
 21
124.8048199748867
 31
0.0
  0
LINE
  5
276
330
1F
100
AcDbEntity
  8
Generic Sections
  6
Continuous2
 62
    18
420
        0
 60
     1
370
    -3
100
AcDbLine
 10
-442.4023061273487
 20
124.5555190530166
 30
0.0
 11
-442.4479316791774
 21
124.8048199748867
 31
0.0
  0
LINE
  5
277
330
1F
100
AcDbEntity
  8
Generic Sections
  6
Continuous2
 62
    18
420
        0
 60
     1
370
    -3
100
AcDbLine
 10
-442.4855454392261
 20
124.5541850896852
 30
0.0
 11
-442.4479316791774
 21
124.8048199748867
 31
0.0
  0
LINE
  5
278
330
1F
100
AcDbEntity
  8
Generic Sections
  6
Continuous2
 62
    18
420
        0
 60
     1
370
    -3
100
AcDbLine
 10
-441.2435572310062
 20
47.05412089675695
 30
0.0
 11
-441.1979316791774
 21
46.80481997488677
 31
0.0
  0
LINE
  5
279
330
1F
100
AcDbEntity
  8
Generic Sections
  6
Continuous2
 62
    18
420
        0
 60
     1
370
    -3
100
AcDbLine
 10
-441.1603179191287
 20
47.05545486008833
 30
0.0
 11
-441.1979316791774
 21
46.80481997488677
 31
0.0
  0
TEXT
  5
27A
330
1F
100
AcDbEntity
  8
Generic Sections
  6
Continuous2
 62
    18
420
        0
 60
     1
370
    -3
100
AcDbText
 10
-449.9266470933424
 20
92.8413677011364
 30
0.0
 40
3.0
  1
78 1/64
 41
0.625
  7
MCStick_A0.625000_S0.000000
100
AcDbText
  0
LINE
  5
27B
330
1F
100
AcDbEntity
  8
Generic Sections
  6
Continuous2
 62
    18
420
        0
 60
     1
370
    -3
100
AcDbLine
 10
-441.853346960341
 20
87.70273351949976
 30
0.0
 11
-441.1979316791774
 21
46.80481997488677
 31
0.0
  0
LINE
  5
27C
330
1F
100
AcDbEntity
  8
Generic Sections
  6
Continuous2
 62
    18
420
        0
 60
     1
370
    -3
100
AcDbLine
 10
-442.4023061273487
 20
124.5555190530166
 30
0.0
 11
-442.4479316791774
 21
124.8048199748867
 31
0.0
  0
LINE
  5
27D
330
1F
100
AcDbEntity
  8
Generic Sections
  6
Continuous2
 62
    18
420
        0
 60
     1
370
    -3
100
AcDbLine
 10
-442.4855454392261
 20
124.5541850896852
 30
0.0
 11
-442.4479316791774
 21
124.8048199748867
 31
0.0
  0
LINE
  5
27E
330
1F
100
AcDbEntity
  8
Generic Sections
  6
Continuous2
 62
    18
420
        0
 60
     1
370
    -3
100
AcDbLine
 10
-441.2435572310062
 20
47.05412089675695
 30
0.0
 11
-441.1979316791774
 21
46.80481997488677
 31
0.0
  0
LINE
  5
27F
330
1F
100
AcDbEntity
  8
Generic Sections
  6
Continuous2
 62
    18
420
        0
 60
     1
370
    -3
100
AcDbLine
 10
-441.1603179191287
 20
47.05545486008833
 30
0.0
 11
-441.1979316791774
 21
46.80481997488677
 31
0.0
  0
LINE
  5
280
330
1F
100
AcDbEntity
  8
Generic Sections
  6
Continuous2
 62
    18
420
        0
 60
     1
370
    -3
100
AcDbLine
 10
-441.1771010238823
 20
46.80515379949086
 30
0.0
 11
-458.6078113145127
 21
46.52581549355126
 31
0.0
  0
LINE
  5
281
330
1F
100
AcDbEntity
  8
Generic Sections
  6
Continuous2
 62
    18
420
        0
 60
     1
370
    -3
100
AcDbLine
 10
-442.4023061273487
 20
124.5555190530166
 30
0.0
 11
-442.4479316791774
 21
124.8048199748867
 31
0.0
  0
LINE
  5
282
330
1F
100
AcDbEntity
  8
Generic Sections
  6
Continuous2
 62
    18
420
        0
 60
     1
370
    -3
100
AcDbLine
 10
-442.4855454392261
 20
124.5541850896852
 30
0.0
 11
-442.4479316791774
 21
124.8048199748867
 31
0.0
  0
LINE
  5
283
330
1F
100
AcDbEntity
  8
Generic Sections
  6
Continuous2
 62
    18
420
        0
 60
     1
370
    -3
100
AcDbLine
 10
-441.2435572310062
 20
47.05412089675695
 30
0.0
 11
-441.1979316791774
 21
46.80481997488677
 31
0.0
  0
LINE
  5
284
330
1F
100
AcDbEntity
  8
Generic Sections
  6
Continuous2
 62
    18
420
        0
 60
     1
370
    -3
100
AcDbLine
 10
-441.1603179191287
 20
47.05545486008833
 30
0.0
 11
-441.1979316791774
 21
46.80481997488677
 31
0.0
  0
LINE
  5
285
330
1F
100
AcDbEntity
  8
Generic Sections
  6
Continuous2
 62
    18
420
        0
 60
     1
370
    -3
100
AcDbLine
 10
-514.7928545755194
 20
-19.54952766047043
 30
0.0
 11
-490.7008907954673
 21
-19.54952766047045
 31
0.0
  0
LINE
  5
286
330
1F
100
AcDbEntity
  8
Generic Sections
  6
Continuous2
 62
    18
420
        0
 60
     1
370
    -3
100
AcDbLine
 10
-514.8136462455194
 20
-19.29952766047043
 30
0.0
 11
-514.7720212455195
 21
-19.54952766047043
 31
0.0
  0
LINE
  5
287
330
1F
100
AcDbEntity
  8
Generic Sections
  6
Continuous2
 62
    18
420
        0
 60
     1
370
    -3
100
AcDbLine
 10
-514.7303962455195
 20
-19.29952766047043
 30
0.0
 11
-514.7720212455195
 21
-19.54952766047043
 31
0.0
  0
LINE
  5
288
330
1F
100
AcDbEntity
  8
Generic Sections
  6
Continuous2
 62
    18
420
        0
 60
     1
370
    -3
100
AcDbLine
 10
-514.7303962455195
 20
22.20047233952957
 30
0.0
 11
-514.7720212455195
 21
22.45047233952957
 31
0.0
  0
LINE
  5
289
330
1F
100
AcDbEntity
  8
Generic Sections
  6
Continuous2
 62
    18
420
        0
 60
     1
370
    -3
100
AcDbLine
 10
-514.8136462455194
 20
22.20047233952957
 30
0.0
 11
-514.7720212455195
 21
22.45047233952957
 31
0.0
  0
LINE
  5
28A
330
1F
100
AcDbEntity
  8
Generic Sections
  6
Continuous2
 62
    18
420
        0
 60
     1
370
    -3
100
AcDbLine
 10
-514.7720212455195
 20
2.808175476279732
 30
0.0
 11
-514.7720212455195
 21
-19.54952766047043
 31
0.0
  0
LINE
  5
28B
330
1F
100
AcDbEntity
  8
Generic Sections
  6
Continuous2
 62
    18
420
        0
 60
     1
370
    -3
100
AcDbLine
 10
-514.8136462455194
 20
-19.29952766047043
 30
0.0
 11
-514.7720212455195
 21
-19.54952766047043
 31
0.0
  0
LINE
  5
28C
330
1F
100
AcDbEntity
  8
Generic Sections
  6
Continuous2
 62
    18
420
        0
 60
     1
370
    -3
100
AcDbLine
 10
-514.7303962455195
 20
-19.29952766047043
 30
0.0
 11
-514.7720212455195
 21
-19.54952766047043
 31
0.0
  0
LINE
  5
28D
330
1F
100
AcDbEntity
  8
Generic Sections
  6
Continuous2
 62
    18
420
        0
 60
     1
370
    -3
100
AcDbLine
 10
-514.7303962455195
 20
22.20047233952957
 30
0.0
 11
-514.7720212455195
 21
22.45047233952957
 31
0.0
  0
LINE
  5
28E
330
1F
100
AcDbEntity
  8
Generic Sections
  6
Continuous2
 62
    18
420
        0
 60
     1
370
    -3
100
AcDbLine
 10
-514.8136462455194
 20
22.20047233952957
 30
0.0
 11
-514.7720212455195
 21
22.45047233952957
 31
0.0
  0
TEXT
  5
28F
330
1F
100
AcDbEntity
  8
Generic Sections
  6
Continuous2
 62
    18
420
        0
 60
     1
370
    -3
100
AcDbText
 10
-517.0220212455195
 20
7.947117783972065
 30
0.0
 40
3.0
  1
42
 41
0.625
  7
MCStick_A0.625000_S0.000000
100
AcDbText
  0
LINE
  5
290
330
1F
100
AcDbEntity
  8
Generic Sections
  6
Continuous2
 62
    18
420
        0
 60
     1
370
    -3
100
AcDbLine
 10
-514.7720212455195
 20
16.08606009166434
 30
0.0
 11
-514.7720212455195
 21
22.45047233952957
 31
0.0
  0
LINE
  5
291
330
1F
100
AcDbEntity
  8
Generic Sections
  6
Continuous2
 62
    18
420
        0
 60
     1
370
    -3
100
AcDbLine
 10
-514.8136462455194
 20
-19.29952766047043
 30
0.0
 11
-514.7720212455195
 21
-19.54952766047043
 31
0.0
  0
LINE
  5
292
330
1F
100
AcDbEntity
  8
Generic Sections
  6
Continuous2
 62
    18
420
        0
 60
     1
370
    -3
100
AcDbLine
 10
-514.7303962455195
 20
-19.29952766047043
 30
0.0
 11
-514.7720212455195
 21
-19.54952766047043
 31
0.0
  0
LINE
  5
293
330
1F
100
AcDbEntity
  8
Generic Sections
  6
Continuous2
 62
    18
420
        0
 60
     1
370
    -3
100
AcDbLine
 10
-514.7303962455195
 20
22.20047233952957
 30
0.0
 11
-514.7720212455195
 21
22.45047233952957
 31
0.0
  0
LINE
  5
294
330
1F
100
AcDbEntity
  8
Generic Sections
  6
Continuous2
 62
    18
420
        0
 60
     1
370
    -3
100
AcDbLine
 10
-514.8136462455194
 20
22.20047233952957
 30
0.0
 11
-514.7720212455195
 21
22.45047233952957
 31
0.0
  0
LINE
  5
295
330
1F
100
AcDbEntity
  8
Generic Sections
  6
Continuous2
 62
    18
420
        0
 60
     1
370
    -3
100
AcDbLine
 10
-514.7928545755194
 20
22.45047233952957
 30
0.0
 11
-490.7008907954673
 21
22.45047233952955
 31
0.0
  0
LINE
  5
296
330
1F
100
AcDbEntity
  8
Generic Sections
  6
Continuous2
 62
    18
420
        0
 60
     1
370
    -3
100
AcDbLine
 10
-514.8136462455194
 20
-19.29952766047043
 30
0.0
 11
-514.7720212455195
 21
-19.54952766047043
 31
0.0
  0
LINE
  5
297
330
1F
100
AcDbEntity
  8
Generic Sections
  6
Continuous2
 62
    18
420
        0
 60
     1
370
    -3
100
AcDbLine
 10
-514.7303962455195
 20
-19.29952766047043
 30
0.0
 11
-514.7720212455195
 21
-19.54952766047043
 31
0.0
  0
LINE
  5
298
330
1F
100
AcDbEntity
  8
Generic Sections
  6
Continuous2
 62
    18
420
        0
 60
     1
370
    -3
100
AcDbLine
 10
-514.7303962455195
 20
22.20047233952957
 30
0.0
 11
-514.7720212455195
 21
22.45047233952957
 31
0.0
  0
LINE
  5
299
330
1F
100
AcDbEntity
  8
Generic Sections
  6
Continuous2
 62
    18
420
        0
 60
     1
370
    -3
100
AcDbLine
 10
-514.8136462455194
 20
22.20047233952957
 30
0.0
 11
-514.7720212455195
 21
22.45047233952957
 31
0.0
  0
LINE
  5
29A
330
1F
100
AcDbEntity
  8
Generic Sections
  6
Continuous2
 62
    18
420
        0
 60
     1
370
    -3
100
AcDbLine
 10
-501.3043319104637
 20
22.45047233952951
 30
0.0
 11
-490.7008907954673
 21
22.45047233952955
 31
0.0
  0
LINE
  5
29B
330
1F
100
AcDbEntity
  8
Generic Sections
  6
Continuous2
 62
    18
420
        0
 60
     1
370
    -3
100
AcDbLine
 10
-501.3251235804638
 20
22.70047233952951
 30
0.0
 11
-501.2834985804637
 21
22.45047233952951
 31
0.0
  0
LINE
  5
29C
330
1F
100
AcDbEntity
  8
Generic Sections
  6
Continuous2
 62
    18
420
        0
 60
     1
370
    -3
100
AcDbLine
 10
-501.2418735804637
 20
22.70047233952951
 30
0.0
 11
-501.2834985804637
 21
22.45047233952951
 31
0.0
  0
LINE
  5
29D
330
1F
100
AcDbEntity
  8
Generic Sections
  6
Continuous2
 62
    18
420
        0
 60
     1
370
    -3
100
AcDbLine
 10
-501.2418735804637
 20
124.2004723395295
 30
0.0
 11
-501.2834985804637
 21
124.4504723395295
 31
0.0
  0
LINE
  5
29E
330
1F
100
AcDbEntity
  8
Generic Sections
  6
Continuous2
 62
    18
420
        0
 60
     1
370
    -3
100
AcDbLine
 10
-501.3251235804638
 20
124.2004723395295
 30
0.0
 11
-501.2834985804637
 21
124.4504723395295
 31
0.0
  0
LINE
  5
29F
330
1F
100
AcDbEntity
  8
Generic Sections
  6
Continuous2
 62
    18
420
        0
 60
     1
370
    -3
100
AcDbLine
 10
-501.2834985804637
 20
66.81153003183718
 30
0.0
 11
-501.2834985804637
 21
22.45047233952951
 31
0.0
  0
LINE
  5
2A0
330
1F
100
AcDbEntity
  8
Generic Sections
  6
Continuous2
 62
    18
420
        0
 60
     1
370
    -3
100
AcDbLine
 10
-501.3251235804638
 20
22.70047233952951
 30
0.0
 11
-501.2834985804637
 21
22.45047233952951
 31
0.0
  0
LINE
  5
2A1
330
1F
100
AcDbEntity
  8
Generic Sections
  6
Continuous2
 62
    18
420
        0
 60
     1
370
    -3
100
AcDbLine
 10
-501.2418735804637
 20
22.70047233952951
 30
0.0
 11
-501.2834985804637
 21
22.45047233952951
 31
0.0
  0
LINE
  5
2A2
330
1F
100
AcDbEntity
  8
Generic Sections
  6
Continuous2
 62
    18
420
        0
 60
     1
370
    -3
100
AcDbLine
 10
-501.2418735804637
 20
124.2004723395295
 30
0.0
 11
-501.2834985804637
 21
124.4504723395295
 31
0.0
  0
LINE
  5
2A3
330
1F
100
AcDbEntity
  8
Generic Sections
  6
Continuous2
 62
    18
420
        0
 60
     1
370
    -3
100
AcDbLine
 10
-501.3251235804638
 20
124.2004723395295
 30
0.0
 11
-501.2834985804637
 21
124.4504723395295
 31
0.0
  0
TEXT
  5
2A4
330
1F
100
AcDbEntity
  8
Generic Sections
  6
Continuous2
 62
    18
420
        0
 60
     1
370
    -3
100
AcDbText
 10
-505.2173221098755
 20
71.95047233952951
 30
0.0
 40
3.0
  1
102"
 41
0.625
  7
MCStick_A0.625000_S0.000000
100
AcDbText
  0
LINE
  5
2A5
330
1F
100
AcDbEntity
  8
Generic Sections
  6
Continuous2
 62
    18
420
        0
 60
     1
370
    -3
100
AcDbLine
 10
-501.2834985804637
 20
80.08941464722184
 30
0.0
 11
-501.2834985804637
 21
124.4504723395295
 31
0.0
  0
LINE
  5
2A6
330
1F
100
AcDbEntity
  8
Generic Sections
  6
Continuous2
 62
    18
420
        0
 60
     1
370
    -3
100
AcDbLine
 10
-501.3251235804638
 20
22.70047233952951
 30
0.0
 11
-501.2834985804637
 21
22.45047233952951
 31
0.0
  0
LINE
  5
2A7
330
1F
100
AcDbEntity
  8
Generic Sections
  6
Continuous2
 62
    18
420
        0
 60
     1
370
    -3
100
AcDbLine
 10
-501.2418735804637
 20
22.70047233952951
 30
0.0
 11
-501.2834985804637
 21
22.45047233952951
 31
0.0
  0
LINE
  5
2A8
330
1F
100
AcDbEntity
  8
Generic Sections
  6
Continuous2
 62
    18
420
        0
 60
     1
370
    -3
100
AcDbLine
 10
-501.2418735804637
 20
124.2004723395295
 30
0.0
 11
-501.2834985804637
 21
124.4504723395295
 31
0.0
  0
LINE
  5
2A9
330
1F
100
AcDbEntity
  8
Generic Sections
  6
Continuous2
 62
    18
420
        0
 60
     1
370
    -3
100
AcDbLine
 10
-501.3251235804638
 20
124.2004723395295
 30
0.0
 11
-501.2834985804637
 21
124.4504723395295
 31
0.0
  0
LINE
  5
2AA
330
1F
100
AcDbEntity
  8
Generic Sections
  6
Continuous2
 62
    18
420
        0
 60
     1
370
    -3
100
AcDbLine
 10
-501.3043319104637
 20
124.4504723395295
 30
0.0
 11
-490.7008907954673
 21
124.4504723395295
 31
0.0
  0
LINE
  5
2AB
330
1F
100
AcDbEntity
  8
Generic Sections
  6
Continuous2
 62
    18
420
        0
 60
     1
370
    -3
100
AcDbLine
 10
-501.3251235804638
 20
22.70047233952951
 30
0.0
 11
-501.2834985804637
 21
22.45047233952951
 31
0.0
  0
LINE
  5
2AC
330
1F
100
AcDbEntity
  8
Generic Sections
  6
Continuous2
 62
    18
420
        0
 60
     1
370
    -3
100
AcDbLine
 10
-501.2418735804637
 20
22.70047233952951
 30
0.0
 11
-501.2834985804637
 21
22.45047233952951
 31
0.0
  0
LINE
  5
2AD
330
1F
100
AcDbEntity
  8
Generic Sections
  6
Continuous2
 62
    18
420
        0
 60
     1
370
    -3
100
AcDbLine
 10
-501.2418735804637
 20
124.2004723395295
 30
0.0
 11
-501.2834985804637
 21
124.4504723395295
 31
0.0
  0
LINE
  5
2AE
330
1F
100
AcDbEntity
  8
Generic Sections
  6
Continuous2
 62
    18
420
        0
 60
     1
370
    -3
100
AcDbLine
 10
-501.3251235804638
 20
124.2004723395295
 30
0.0
 11
-501.2834985804637
 21
124.4504723395295
 31
0.0
  0
LINE
  5
2AF
330
1F
100
AcDbEntity
  8
Generic Sections
  6
Continuous2
 62
    18
420
        0
370
    -3
100
AcDbLine
 10
-224.5119977736228
 20
158.4225744750364
 30
0.0
 11
-216.0119977736228
 21
158.4225744750364
 31
0.0
  0
LINE
  5
2B0
330
1F
100
AcDbEntity
  8
Generic Sections
  6
Continuous2
 62
    18
420
        0
370
    -3
100
AcDbLine
 10
-216.0119977736228
 20
158.4225744750364
 30
0.0
 11
-216.0119977736228
 21
147.4225744750364
 31
0.0
  0
LINE
  5
2B1
330
1F
100
AcDbEntity
  8
Generic Sections
  6
Continuous2
 62
    18
420
        0
370
    -3
100
AcDbLine
 10
-216.0119977736228
 20
147.4225744750364
 30
0.0
 11
-224.5119977736228
 21
147.4225744750364
 31
0.0
  0
LINE
  5
2B2
330
1F
100
AcDbEntity
  8
Generic Sections
  6
Continuous2
 62
    18
420
        0
370
    -3
100
AcDbLine
 10
-224.5119977736228
 20
147.4225744750364
 30
0.0
 11
-224.5119977736228
 21
158.4225744750364
 31
0.0
  0
MTEXT
  5
2B3
330
1F
100
AcDbEntity
  8
Section H
  6
Continuous2
 62
   176
420
      128
370
    -3
100
AcDbMText
 10
-218.9280203590373
 20
147.9437404965227
 30
0.0
 40
0.125
 41
2.313664215686275
 71
     7
 72
     1
  1
E.F. San Juan, Inc^M\PDate:  11/02/2015^M\PDrawn By: JT^M\PApproved By:^M\PApproved By:^M\PPage:     of  
  7
MCStick_A0.875000_S0.000000
 73
     1
 44
0.75
  0
LINE
  5
2B5
330
1F
100
AcDbEntity
  8
Generic Sections
  6
Continuous2
 62
    18
420
        0
370
    -3
100
AcDbLine
 10
-217.5731633902532
 20
148.2077197007118
 30
0.0
 11
-216.2524283323606
 21
148.2077197007118
 31
0.0
  0
LINE
  5
2B6
330
1F
100
AcDbEntity
  8
Generic Sections
  6
Continuous2
 62
    18
420
        0
370
    -3
100
AcDbLine
 10
-217.5812660593201
 20
148.4670051108502
 30
0.0
 11
-216.2524283323606
 21
148.4670051108502
 31
0.0
  0
TEXT
  5
2B7
330
1F
100
AcDbEntity
  8
Generic Sections
  6
Continuous2
 62
    18
420
        0
370
    -3
100
AcDbText
 10
-221.0411057508547
 20
148.0165592525549
 30
0.0
 40
0.125
  1
Full Scale
 50
359.9999999999999
 41
0.625
  7
MCStick_A0.625000_S0.000000
 11
-221.0411057508547
 21
147.9808449668407
 31
0.0
100
AcDbText
 73
     1
  0
TEXT
  5
2B8
330
1F
100
AcDbEntity
  8
Generic Sections
  6
Continuous2
 62
    18
420
        0
370
    -3
100
AcDbText
 10
-220.7425254780661
 20
157.697954331959
 30
0.0
 40
0.125
  1
SM4525
 50
359.9999999999999
 41
0.625
  7
MCStick_A0.625000_S0.000000
 11
-220.7425254780661
 21
157.6622400462447
 31
0.0
100
AcDbText
 73
     1
  0
LINE
  5
2B9
330
1F
100
AcDbEntity
  8
Generic Sections
  6
Continuous2
 62
    18
420
        0
 60
     1
370
    -3
100
AcDbLine
 10
-221.3161172680241
 20
153.6311938860684
 30
0.0
 11
-220.9777343044649
 21
153.6311938860684
 31
0.0
  0
LINE
  5
2BA
330
1F
100
AcDbEntity
  8
Generic Sections
  6
Continuous2
 62
    18
420
        0
 60
     1
370
    -3
100
AcDbLine
 10
-221.2327422680241
 20
153.8811938860684
 30
0.0
 11
-221.1911172680241
 21
153.6311938860684
 31
0.0
  0
LINE
  5
2BB
330
1F
100
AcDbEntity
  8
Generic Sections
  6
Continuous2
 62
    18
420
        0
 60
     1
370
    -3
100
AcDbLine
 10
-221.1494922680241
 20
153.8811938860684
 30
0.0
 11
-221.1911172680241
 21
153.6311938860684
 31
0.0
  0
LINE
  5
2BC
330
1F
100
AcDbEntity
  8
Generic Sections
  6
Continuous2
 62
    18
420
        0
 60
     1
370
    -3
100
AcDbLine
 10
-221.1494922680241
 20
154.0061938860684
 30
0.0
 11
-221.1911172680241
 21
154.2561938860684
 31
0.0
  0
LINE
  5
2BD
330
1F
100
AcDbEntity
  8
Generic Sections
  6
Continuous2
 62
    18
420
        0
 60
     1
370
    -3
100
AcDbLine
 10
-221.2327422680241
 20
154.0061938860684
 30
0.0
 11
-221.1911172680241
 21
154.2561938860684
 31
0.0
  0
LINE
  5
2BE
330
1F
100
AcDbEntity
  8
Generic Sections
  6
Continuous2
 62
    18
420
        0
 60
     1
370
    -3
100
AcDbLine
 10
-221.1911172680241
 20
153.9436938860684
 30
0.0
 11
-221.1911172680241
 21
153.6311938860684
 31
0.0
  0
LINE
  5
2BF
330
1F
100
AcDbEntity
  8
Generic Sections
  6
Continuous2
 62
    18
420
        0
 60
     1
370
    -3
100
AcDbLine
 10
-221.2327422680241
 20
153.8811938860684
 30
0.0
 11
-221.1911172680241
 21
153.6311938860684
 31
0.0
  0
LINE
  5
2C0
330
1F
100
AcDbEntity
  8
Generic Sections
  6
Continuous2
 62
    18
420
        0
 60
     1
370
    -3
100
AcDbLine
 10
-221.1494922680241
 20
153.8811938860684
 30
0.0
 11
-221.1911172680241
 21
153.6311938860684
 31
0.0
  0
LINE
  5
2C1
330
1F
100
AcDbEntity
  8
Generic Sections
  6
Continuous2
 62
    18
420
        0
 60
     1
370
    -3
100
AcDbLine
 10
-221.1494922680241
 20
154.0061938860684
 30
0.0
 11
-221.1911172680241
 21
154.2561938860684
 31
0.0
  0
LINE
  5
2C2
330
1F
100
AcDbEntity
  8
Generic Sections
  6
Continuous2
 62
    18
420
        0
 60
     1
370
    -3
100
AcDbLine
 10
-221.2327422680241
 20
154.0061938860684
 30
0.0
 11
-221.1911172680241
 21
154.2561938860684
 31
0.0
  0
TEXT
  5
2C3
330
1F
100
AcDbEntity
  8
Generic Sections
  6
Continuous2
 62
    18
420
        0
 60
     1
370
    -3
100
AcDbText
 10
-221.9379922680241
 20
154.3703164822222
 30
0.0
 40
0.125
  1
5/8
 41
0.625
  7
MCStick_A0.625000_S0.000000
100
AcDbText
  0
LINE
  5
2C4
330
1F
100
AcDbEntity
  8
Generic Sections
  6
Continuous2
 62
    18
420
        0
 60
     1
370
    -3
100
AcDbLine
 10
-221.1911172680241
 20
153.9436938860684
 30
0.0
 11
-221.1911172680241
 21
154.2561938860684
 31
0.0
  0
LINE
  5
2C5
330
1F
100
AcDbEntity
  8
Generic Sections
  6
Continuous2
 62
    18
420
        0
 60
     1
370
    -3
100
AcDbLine
 10
-221.1911172680241
 20
153.9436938860684
 30
0.0
 11
-221.1911172680241
 21
154.4328164822222
 31
0.0
  0
LINE
  5
2C6
330
1F
100
AcDbEntity
  8
Generic Sections
  6
Continuous2
 62
    18
420
        0
 60
     1
370
    -3
100
AcDbLine
 10
-221.1911172680241
 20
154.4328164822222
 30
0.0
 11
-221.4411172680241
 21
154.4328164822222
 31
0.0
  0
LINE
  5
2C7
330
1F
100
AcDbEntity
  8
Generic Sections
  6
Continuous2
 62
    18
420
        0
 60
     1
370
    -3
100
AcDbLine
 10
-221.2327422680241
 20
153.8811938860684
 30
0.0
 11
-221.1911172680241
 21
153.6311938860684
 31
0.0
  0
LINE
  5
2C8
330
1F
100
AcDbEntity
  8
Generic Sections
  6
Continuous2
 62
    18
420
        0
 60
     1
370
    -3
100
AcDbLine
 10
-221.1494922680241
 20
153.8811938860684
 30
0.0
 11
-221.1911172680241
 21
153.6311938860684
 31
0.0
  0
LINE
  5
2C9
330
1F
100
AcDbEntity
  8
Generic Sections
  6
Continuous2
 62
    18
420
        0
 60
     1
370
    -3
100
AcDbLine
 10
-221.1494922680241
 20
154.0061938860684
 30
0.0
 11
-221.1911172680241
 21
154.2561938860684
 31
0.0
  0
LINE
  5
2CA
330
1F
100
AcDbEntity
  8
Generic Sections
  6
Continuous2
 62
    18
420
        0
 60
     1
370
    -3
100
AcDbLine
 10
-221.2327422680241
 20
154.0061938860684
 30
0.0
 11
-221.1911172680241
 21
154.2561938860684
 31
0.0
  0
LINE
  5
2CB
330
1F
100
AcDbEntity
  8
Generic Sections
  6
Continuous2
 62
    18
420
        0
 60
     1
370
    -3
100
AcDbLine
 10
-221.3161172680241
 20
154.2561938860684
 30
0.0
 11
-220.9777343044649
 21
154.2561938860684
 31
0.0
  0
LINE
  5
2CC
330
1F
100
AcDbEntity
  8
Generic Sections
  6
Continuous2
 62
    18
420
        0
 60
     1
370
    -3
100
AcDbLine
 10
-221.2327422680241
 20
153.8811938860684
 30
0.0
 11
-221.1911172680241
 21
153.6311938860684
 31
0.0
  0
LINE
  5
2CD
330
1F
100
AcDbEntity
  8
Generic Sections
  6
Continuous2
 62
    18
420
        0
 60
     1
370
    -3
100
AcDbLine
 10
-221.1494922680241
 20
153.8811938860684
 30
0.0
 11
-221.1911172680241
 21
153.6311938860684
 31
0.0
  0
LINE
  5
2CE
330
1F
100
AcDbEntity
  8
Generic Sections
  6
Continuous2
 62
    18
420
        0
 60
     1
370
    -3
100
AcDbLine
 10
-221.1494922680241
 20
154.0061938860684
 30
0.0
 11
-221.1911172680241
 21
154.2561938860684
 31
0.0
  0
LINE
  5
2CF
330
1F
100
AcDbEntity
  8
Generic Sections
  6
Continuous2
 62
    18
420
        0
 60
     1
370
    -3
100
AcDbLine
 10
-221.2327422680241
 20
154.0061938860684
 30
0.0
 11
-221.1911172680241
 21
154.2561938860684
 31
0.0
  0
LINE
  5
2D0
330
1F
100
AcDbEntity
  8
Generic Sections
  6
Continuous2
 62
    18
420
        0
370
    -3
100
AcDbLine
 10
-220.2939458205578
 20
153.1974054021613
 30
0.0
 11
-220.2939458205578
 21
154.1974054021613
 31
0.0
  0
LINE
  5
2D1
330
1F
100
AcDbEntity
  8
Generic Sections
  6
Continuous2
 62
    18
420
        0
370
    -3
100
AcDbLine
 10
-220.2939458205578
 20
153.1974054021613
 30
0.0
 11
-219.6689458205578
 21
153.1974054021613
 31
0.0
  0
LINE
  5
2D2
330
1F
100
AcDbEntity
  8
Generic Sections
  6
Continuous2
 62
    18
420
        0
370
    -3
100
AcDbLine
 10
-219.6689458205578
 20
153.1974054021613
 30
0.0
 11
-219.6689458205578
 21
153.3894747751627
 31
0.0
  0
LINE
  5
2D3
330
1F
100
AcDbEntity
  8
Generic Sections
  6
Continuous2
 62
    18
420
        0
370
    -3
100
AcDbLine
 10
-220.2939458205578
 20
154.1974054021613
 30
0.0
 11
-220.2642905327186
 21
154.1974054021613
 31
0.0
  0
LINE
  5
2D4
330
1F
100
AcDbEntity
  8
Generic Sections
  6
Continuous2
 62
    18
420
        0
370
    -3
100
AcDbLine
 10
-220.0439458205578
 20
153.9474054021613
 30
0.0
 11
-220.044420288058
 21
153.9474054021613
 31
0.0
  0
LINE
  5
2D5
330
1F
100
AcDbEntity
  8
Generic Sections
  6
Continuous2
 62
    18
420
        0
370
    -3
100
AcDbLine
 10
-220.0439458205578
 20
153.9474054021613
 30
0.0
 11
-220.0439458205578
 21
153.9467764266824
 31
0.0
  0
ARC
  5
2D6
330
1F
100
AcDbEntity
  8
Generic Sections
  6
Continuous2
 62
    18
420
        0
370
    -3
100
AcDbCircle
 10
-219.785058747057
 20
154.1355716620492
 30
0.0
 40
0.3372744542565511
100
AcDbArc
 50
190.4243758637295
 51
238.8718628574142
  0
ARC
  5
2D7
330
1F
100
AcDbEntity
  8
Generic Sections
  6
Continuous2
 62
    18
420
        0
370
    -3
100
AcDbCircle
 10
-220.2642905327186
 20
154.0474054021615
 30
0.0
 40
0.1500000000000208
100
AcDbArc
 50
10.42437586375375
 51
90.0
  0
ARC
  5
2D8
330
1F
100
AcDbEntity
  8
Generic Sections
  6
Continuous2
 62
    18
420
        0
370
    -3
100
AcDbCircle
 10
-220.0189458205567
 20
153.389474775163
 30
0.0
 40
0.3499999999987634
100
AcDbArc
 50
359.9999999999573
 51
19.33562600356171
  0
ARC
  5
2D9
330
1F
100
AcDbEntity
  8
Generic Sections
  6
Continuous2
 62
    18
420
        0
370
    -3
100
AcDbCircle
 10
-220.2722238865386
 20
153.3208178165958
 30
0.0
 40
0.6120217511794018
100
AcDbArc
 50
17.54946780489106
 51
59.26227046931767
  0
LINE
  5
2DA
330
1F
100
AcDbEntity
  8
D2
  6
Continuous2
 62
   176
420
      128
370
    -3
100
AcDbLine
 10
-220.8415524569425
 20
153.1974054021613
 30
0.0
 11
-220.4189458205578
 21
153.1974054021613
 31
0.0
  0
LINE
  5
2DB
330
1F
100
AcDbEntity
  8
D2
  6
Continuous2
 62
   176
420
      128
370
    -3
100
AcDbLine
 10
-220.7998649569425
 20
153.2286554021613
 30
0.0
 11
-220.7790524569425
 21
153.1974054021613
 31
0.0
  0
LINE
  5
2DC
330
1F
100
AcDbEntity
  8
D2
  6
Continuous2
 62
   176
420
      128
370
    -3
100
AcDbLine
 10
-220.7582399569425
 20
153.2286554021613
 30
0.0
 11
-220.7790524569425
 21
153.1974054021613
 31
0.0
  0
LINE
  5
2DD
330
1F
100
AcDbEntity
  8
D2
  6
Continuous2
 62
   176
420
      128
370
    -3
100
AcDbLine
 10
-220.7582399569425
 20
154.1661554021613
 30
0.0
 11
-220.7790524569425
 21
154.1974054021613
 31
0.0
  0
LINE
  5
2DE
330
1F
100
AcDbEntity
  8
D2
  6
Continuous2
 62
   176
420
      128
370
    -3
100
AcDbLine
 10
-220.7998649569425
 20
154.1661554021613
 30
0.0
 11
-220.7790524569425
 21
154.1974054021613
 31
0.0
  0
LINE
  5
2DF
330
1F
100
AcDbEntity
  8
D2
  6
Continuous2
 62
   176
420
      128
370
    -3
100
AcDbLine
 10
-220.7790524569425
 20
153.4332828060075
 30
0.0
 11
-220.7790524569425
 21
153.1974054021613
 31
0.0
  0
LINE
  5
2E0
330
1F
100
AcDbEntity
  8
D2
  6
Continuous2
 62
   176
420
      128
370
    -3
100
AcDbLine
 10
-220.7998649569425
 20
153.2286554021613
 30
0.0
 11
-220.7790524569425
 21
153.1974054021613
 31
0.0
  0
LINE
  5
2E1
330
1F
100
AcDbEntity
  8
D2
  6
Continuous2
 62
   176
420
      128
370
    -3
100
AcDbLine
 10
-220.7582399569425
 20
153.2286554021613
 30
0.0
 11
-220.7790524569425
 21
153.1974054021613
 31
0.0
  0
LINE
  5
2E2
330
1F
100
AcDbEntity
  8
D2
  6
Continuous2
 62
   176
420
      128
370
    -3
100
AcDbLine
 10
-220.7582399569425
 20
154.1661554021613
 30
0.0
 11
-220.7790524569425
 21
154.1974054021613
 31
0.0
  0
LINE
  5
2E3
330
1F
100
AcDbEntity
  8
D2
  6
Continuous2
 62
   176
420
      128
370
    -3
100
AcDbLine
 10
-220.7998649569425
 20
154.1661554021613
 30
0.0
 11
-220.7790524569425
 21
154.1974054021613
 31
0.0
  0
TEXT
  5
2E4
330
1F
100
AcDbEntity
  8
D2
  6
Continuous2
 62
   176
420
      128
370
    -3
100
AcDbText
 10
-220.8226799079229
 20
153.6349054021613
 30
0.0
 40
0.125
  1
1"
 41
0.5
  7
MCStick_A0.500000_S0.000000
100
AcDbText
  0
LINE
  5
2E5
330
1F
100
AcDbEntity
  8
D2
  6
Continuous2
 62
   176
420
      128
370
    -3
100
AcDbLine
 10
-220.7790524569425
 20
153.9615279983152
 30
0.0
 11
-220.7790524569425
 21
154.1974054021613
 31
0.0
  0
LINE
  5
2E6
330
1F
100
AcDbEntity
  8
D2
  6
Continuous2
 62
   176
420
      128
370
    -3
100
AcDbLine
 10
-220.7998649569425
 20
153.2286554021613
 30
0.0
 11
-220.7790524569425
 21
153.1974054021613
 31
0.0
  0
LINE
  5
2E7
330
1F
100
AcDbEntity
  8
D2
  6
Continuous2
 62
   176
420
      128
370
    -3
100
AcDbLine
 10
-220.7582399569425
 20
153.2286554021613
 30
0.0
 11
-220.7790524569425
 21
153.1974054021613
 31
0.0
  0
LINE
  5
2E8
330
1F
100
AcDbEntity
  8
D2
  6
Continuous2
 62
   176
420
      128
370
    -3
100
AcDbLine
 10
-220.7582399569425
 20
154.1661554021613
 30
0.0
 11
-220.7790524569425
 21
154.1974054021613
 31
0.0
  0
LINE
  5
2E9
330
1F
100
AcDbEntity
  8
D2
  6
Continuous2
 62
   176
420
      128
370
    -3
100
AcDbLine
 10
-220.7998649569425
 20
154.1661554021613
 30
0.0
 11
-220.7790524569425
 21
154.1974054021613
 31
0.0
  0
LINE
  5
2EA
330
1F
100
AcDbEntity
  8
D2
  6
Continuous2
 62
   176
420
      128
370
    -3
100
AcDbLine
 10
-220.8415524569425
 20
154.1974054021613
 30
0.0
 11
-220.4189458205578
 21
154.1974054021613
 31
0.0
  0
LINE
  5
2EB
330
1F
100
AcDbEntity
  8
D2
  6
Continuous2
 62
   176
420
      128
370
    -3
100
AcDbLine
 10
-220.7998649569425
 20
153.2286554021613
 30
0.0
 11
-220.7790524569425
 21
153.1974054021613
 31
0.0
  0
LINE
  5
2EC
330
1F
100
AcDbEntity
  8
D2
  6
Continuous2
 62
   176
420
      128
370
    -3
100
AcDbLine
 10
-220.7582399569425
 20
153.2286554021613
 30
0.0
 11
-220.7790524569425
 21
153.1974054021613
 31
0.0
  0
LINE
  5
2ED
330
1F
100
AcDbEntity
  8
D2
  6
Continuous2
 62
   176
420
      128
370
    -3
100
AcDbLine
 10
-220.7582399569425
 20
154.1661554021613
 30
0.0
 11
-220.7790524569425
 21
154.1974054021613
 31
0.0
  0
LINE
  5
2EE
330
1F
100
AcDbEntity
  8
D2
  6
Continuous2
 62
   176
420
      128
370
    -3
100
AcDbLine
 10
-220.7998649569425
 20
154.1661554021613
 30
0.0
 11
-220.7790524569425
 21
154.1974054021613
 31
0.0
  0
LINE
  5
2EF
330
1F
100
AcDbEntity
  8
D2
  6
Continuous2
 62
   176
420
      128
370
    -3
100
AcDbLine
 10
-220.2939458205578
 20
152.7514100508256
 30
0.0
 11
-220.2939458205578
 21
153.0724054021613
 31
0.0
  0
LINE
  5
2F0
330
1F
100
AcDbEntity
  8
D2
  6
Continuous2
 62
   176
420
      128
370
    -3
100
AcDbLine
 10
-220.2626958205563
 20
152.8347225508233
 30
0.0
 11
-220.2939458205578
 21
152.8139100508256
 31
0.0
  0
LINE
  5
2F1
330
1F
100
AcDbEntity
  8
D2
  6
Continuous2
 62
   176
420
      128
370
    -3
100
AcDbLine
 10
-220.2626958205594
 20
152.7930975508233
 30
0.0
 11
-220.2939458205578
 21
152.8139100508256
 31
0.0
  0
LINE
  5
2F2
330
1F
100
AcDbEntity
  8
D2
  6
Continuous2
 62
   176
420
      128
370
    -3
100
AcDbLine
 10
-219.7001958205563
 20
152.7930975508233
 30
0.0
 11
-219.6689458205578
 21
152.8139100508256
 31
0.0
  0
LINE
  5
2F3
330
1F
100
AcDbEntity
  8
D2
  6
Continuous2
 62
   176
420
      128
370
    -3
100
AcDbLine
 10
-219.7001958205594
 20
152.8347225508233
 30
0.0
 11
-219.6689458205578
 21
152.8139100508256
 31
0.0
  0
LINE
  5
2F4
330
1F
100
AcDbEntity
  8
D2
  6
Continuous2
 62
   176
420
      128
370
    -3
100
AcDbLine
 10
-220.2936958205578
 20
152.8139100508256
 30
0.0
 11
-220.2939458205578
 21
152.8139100508256
 31
0.0
  0
LINE
  5
2F5
330
1F
100
AcDbEntity
  8
D2
  6
Continuous2
 62
   176
420
      128
370
    -3
100
AcDbLine
 10
-220.2626958205563
 20
152.8347225508233
 30
0.0
 11
-220.2939458205578
 21
152.8139100508256
 31
0.0
  0
LINE
  5
2F6
330
1F
100
AcDbEntity
  8
D2
  6
Continuous2
 62
   176
420
      128
370
    -3
100
AcDbLine
 10
-220.2626958205594
 20
152.7930975508233
 30
0.0
 11
-220.2939458205578
 21
152.8139100508256
 31
0.0
  0
LINE
  5
2F7
330
1F
100
AcDbEntity
  8
D2
  6
Continuous2
 62
   176
420
      128
370
    -3
100
AcDbLine
 10
-219.7001958205563
 20
152.7930975508233
 30
0.0
 11
-219.6689458205578
 21
152.8139100508256
 31
0.0
  0
LINE
  5
2F8
330
1F
100
AcDbEntity
  8
D2
  6
Continuous2
 62
   176
420
      128
370
    -3
100
AcDbLine
 10
-219.7001958205594
 20
152.8347225508233
 30
0.0
 11
-219.6689458205578
 21
152.8139100508256
 31
0.0
  0
TEXT
  5
2F9
330
1F
100
AcDbEntity
  8
D2
  6
Continuous2
 62
   176
420
      128
370
    -3
100
AcDbText
 10
-220.128259546048
 20
152.7514100508256
 30
0.0
 40
0.125
  1
5/8"
 41
0.5
  7
MCStick_A0.500000_S0.000000
100
AcDbText
  0
LINE
  5
2FA
330
1F
100
AcDbEntity
  8
D2
  6
Continuous2
 62
   176
420
      128
370
    -3
100
AcDbLine
 10
-219.6691958205578
 20
152.8139100508256
 30
0.0
 11
-219.6689458205578
 21
152.8139100508256
 31
0.0
  0
LINE
  5
2FB
330
1F
100
AcDbEntity
  8
D2
  6
Continuous2
 62
   176
420
      128
370
    -3
100
AcDbLine
 10
-220.2626958205563
 20
152.8347225508233
 30
0.0
 11
-220.2939458205578
 21
152.8139100508256
 31
0.0
  0
LINE
  5
2FC
330
1F
100
AcDbEntity
  8
D2
  6
Continuous2
 62
   176
420
      128
370
    -3
100
AcDbLine
 10
-220.2626958205594
 20
152.7930975508233
 30
0.0
 11
-220.2939458205578
 21
152.8139100508256
 31
0.0
  0
LINE
  5
2FD
330
1F
100
AcDbEntity
  8
D2
  6
Continuous2
 62
   176
420
      128
370
    -3
100
AcDbLine
 10
-219.7001958205563
 20
152.7930975508233
 30
0.0
 11
-219.6689458205578
 21
152.8139100508256
 31
0.0
  0
LINE
  5
2FE
330
1F
100
AcDbEntity
  8
D2
  6
Continuous2
 62
   176
420
      128
370
    -3
100
AcDbLine
 10
-219.7001958205594
 20
152.8347225508233
 30
0.0
 11
-219.6689458205578
 21
152.8139100508256
 31
0.0
  0
LINE
  5
2FF
330
1F
100
AcDbEntity
  8
D2
  6
Continuous2
 62
   176
420
      128
370
    -3
100
AcDbLine
 10
-219.6689458205578
 20
152.7514100508256
 30
0.0
 11
-219.6689458205578
 21
153.0724054021613
 31
0.0
  0
LINE
  5
300
330
1F
100
AcDbEntity
  8
D2
  6
Continuous2
 62
   176
420
      128
370
    -3
100
AcDbLine
 10
-220.2626958205563
 20
152.8347225508233
 30
0.0
 11
-220.2939458205578
 21
152.8139100508256
 31
0.0
  0
LINE
  5
301
330
1F
100
AcDbEntity
  8
D2
  6
Continuous2
 62
   176
420
      128
370
    -3
100
AcDbLine
 10
-220.2626958205594
 20
152.7930975508233
 30
0.0
 11
-220.2939458205578
 21
152.8139100508256
 31
0.0
  0
LINE
  5
302
330
1F
100
AcDbEntity
  8
D2
  6
Continuous2
 62
   176
420
      128
370
    -3
100
AcDbLine
 10
-219.7001958205563
 20
152.7930975508233
 30
0.0
 11
-219.6689458205578
 21
152.8139100508256
 31
0.0
  0
LINE
  5
303
330
1F
100
AcDbEntity
  8
D2
  6
Continuous2
 62
   176
420
      128
370
    -3
100
AcDbLine
 10
-219.7001958205594
 20
152.8347225508233
 30
0.0
 11
-219.6689458205578
 21
152.8139100508256
 31
0.0
  0
VIEWPORT
  5
304
102
{ACAD_XDICTIONARY
360
306
102
}
330
23
100
AcDbEntity
 67
     1
  8
0
100
AcDbViewport
 10
5.25
 20
4.0
 30
0.0
 40
11.638
 41
8.993
 68
     1
 69
     1
 12
5.25
 22
4.0
 13
0.0
 23
0.0
 14
0.5
 24
0.5
 15
0.5
 25
0.5
 16
0.0
 26
0.0
 36
1.0
 17
0.0
 27
0.0
 37
0.0
 42
50.0
 43
0.0
 44
0.0
 45
8.993
 50
0.0
 51
0.0
 72
   100
 90
   557152
  1

281
     0
 71
     1
 74
     0
110
0.0
120
0.0
130
0.0
111
1.0
121
0.0
131
0.0
112
0.0
122
1.0
132
0.0
 79
     0
146
0.0
170
     0
  0
ENDSEC
  0
SECTION
  2
OBJECTS
  0
DICTIONARY
  5
C
330
0
100
AcDbDictionary
281
     1
  3
ACAD_DETAILVIEWSTYLE
350
34D
  3
ACAD_GROUP
350
D
  3
ACAD_LAYOUT
350
1A
  3
ACAD_MATERIAL
350
43
  3
ACAD_MLEADERSTYLE
350
6B
  3
ACAD_MLINESTYLE
350
17
  3
ACAD_PLOTSETTINGS
350
19
  3
ACAD_PLOTSTYLENAME
350
E
  3
ACAD_SCALELIST
350
47
  3
ACAD_SECTIONVIEWSTYLE
350
34E
  3
ACAD_TABLESTYLE
350
69
  3
ACAD_VISUALSTYLE
350
2A
  3
ACDB_RECOMPOSE_DATA
350
34A
  3
AcDbVariableDictionary
350
30A
  0
DICTIONARY
  5
308
330
8
100
AcDbDictionary
280
     1
281
     1
  3
ACAD_XREC_ROUNDTRIP
360
309
  0
DICTIONARY
  5
306
330
304
100
AcDbDictionary
280
     1
281
     1
  3
ACAD_XREC_ROUNDTRIP
360
307
  0
DICTIONARY
  5
34D
102
{ACAD_REACTORS
330
C
102
}
330
C
100
AcDbDictionary
281
     1
  0
DICTIONARY
  5
D
102
{ACAD_REACTORS
330
C
102
}
330
C
100
AcDbDictionary
281
     1
  0
DICTIONARY
  5
1A
102
{ACAD_REACTORS
330
C
102
}
330
C
100
AcDbDictionary
281
     1
  3
Layout2
350
26
  3
Model
350
22
  0
DICTIONARY
  5
43
102
{ACAD_REACTORS
330
C
102
}
330
C
100
AcDbDictionary
281
     1
  3
ByBlock
350
45
  3
ByLayer
350
44
  3
Global
350
46
  0
DICTIONARY
  5
6B
102
{ACAD_REACTORS
330
C
102
}
330
C
100
AcDbDictionary
281
     1
  3
Standard
350
6C
  0
DICTIONARY
  5
17
102
{ACAD_REACTORS
330
C
102
}
330
C
100
AcDbDictionary
281
     1
  3
Standard
350
18
  0
DICTIONARY
  5
19
102
{ACAD_REACTORS
330
C
102
}
330
C
100
AcDbDictionary
281
     1
  0
ACDBDICTIONARYWDFLT
  5
E
102
{ACAD_REACTORS
330
C
102
}
330
C
100
AcDbDictionary
281
     1
  3
Normal
350
F
100
AcDbDictionaryWithDefault
340
F
  0
DICTIONARY
  5
47
102
{ACAD_REACTORS
330
C
102
}
330
C
100
AcDbDictionary
281
     1
  3
A0
350
48
  3
A1
350
49
  3
A2
350
4A
  3
A3
350
4B
  3
A4
350
4C
  3
A5
350
4D
  3
A6
350
4E
  3
A7
350
4F
  3
A8
350
50
  3
A9
350
51
  3
B0
350
52
  3
B1
350
53
  3
B2
350
54
  3
B3
350
55
  3
B4
350
56
  3
B5
350
57
  3
B6
350
58
  3
B7
350
59
  3
B8
350
5A
  3
B9
350
5B
  3
C0
350
5C
  3
C1
350
5D
  3
C2
350
5E
  3
C3
350
5F
  3
C4
350
60
  3
C5
350
61
  3
C6
350
62
  3
C7
350
63
  3
C8
350
64
  3
C9
350
65
  3
D0
350
66
  3
D1
350
67
  3
D2
350
68
  0
DICTIONARY
  5
34E
102
{ACAD_REACTORS
330
C
102
}
330
C
100
AcDbDictionary
281
     1
  0
DICTIONARY
  5
69
102
{ACAD_REACTORS
330
C
102
}
330
C
100
AcDbDictionary
281
     1
  3
Standard
350
6A
  0
DICTIONARY
  5
2A
102
{ACAD_REACTORS
330
C
102
}
330
C
100
AcDbDictionary
281
     1
  3
2dWireframe
350
2F
  3
Basic
350
32
  3
Brighten
350
36
  3
ColorChange
350
3A
  3
Conceptual
350
34
  3
Dim
350
35
  3
EdgeColorOff
350
3D
  3
Facepattern
350
39
  3
Flat
350
2B
  3
FlatWithEdges
350
2C
  3
Gouraud
350
2D
  3
GouraudWithEdges
350
2E
  3
Hidden
350
31
  3
JitterOff
350
3B
  3
Linepattern
350
38
  3
OverhangOff
350
3C
  3
Realistic
350
33
  3
Shaded
350
42
  3
Shaded with edges
350
41
  3
Shades of Gray
350
3E
  3
Sketchy
350
3F
  3
Thicken
350
37
  3
Wireframe
350
30
  3
X-Ray
350
40
  0
XRECORD
  5
34A
102
{ACAD_REACTORS
330
C
102
}
330
C
100
AcDbXrecord
280
     1
 90
        1
330
6A
  0
DICTIONARY
  5
30A
102
{ACAD_REACTORS
330
C
102
}
330
C
100
AcDbDictionary
281
     1
  3
CANNOSCALE
350
30B
  3
CMLEADERSTYLE
350
34C
  3
CTABLESTYLE
350
34B
  3
MSLTSCALE
350
30C
  3
XCLIPFRAME
350
30D
  0
XRECORD
  5
309
102
{ACAD_REACTORS
330
308
102
}
330
308
100
AcDbXrecord
280
     1
102
VTR_0.000_0.000_1.000_1.000_VISUALSTYLE
340
2F
102
VTR_0.000_0.000_1.000_1.000_GRIDDISPLAY
 70
     3
102
VTR_0.000_0.000_1.000_1.000_GRIDMAJOR
 70
     5
102
VTR_0.000_0.000_1.000_1.000_DEFAULTLIGHTING
280
     1
102
VTR_0.000_0.000_1.000_1.000_DEFAULTLIGHTINGTYPE
 70
     1
102
VTR_0.000_0.000_1.000_1.000_BRIGHTNESS
141
0.0
102
VTR_0.000_0.000_1.000_1.000_CONTRAST
142
0.0
  0
XRECORD
  5
307
102
{ACAD_REACTORS
330
306
102
}
330
306
100
AcDbXrecord
280
     1
102
VISUALSTYLE
340
2F
102
GRIDDISPLAY
 70
     2
102
GRIDMAJOR
 70
     5
102
DEFAULTLIGHTING
280
     1
102
DEFAULTLIGHTINGTYPE
 70
     1
102
BRIGHTNESS
141
0.0
102
CONTRAST
142
0.0
102
SUNID
360
0
  0
LAYOUT
  5
26
102
{ACAD_REACTORS
330
1A
102
}
330
1A
100
AcDbPlotSettings
  1

  2
none_device
  4
Letter_(8.50_x_11.00_Inches)
  6

 40
6.35
 41
6.35
 42
6.35001
 43
6.35001
 44
215.9
 45
279.4
 46
0.0
 47
0.0
 48
0.0
 49
0.0
140
0.0
141
0.0
142
1.0
143
1.0
 70
   688
 72
     0
 73
     1
 74
     5
  7

 75
    16
 76
     0
 77
     2
 78
   300
147
1.0
148
0.0
149
0.0
100
AcDbLayout
  1
Layout2
 70
     1
 71
     1
 10
-0.25
 20
-0.25
 11
10.75
 21
8.25
 12
0.0
 22
0.0
 32
0.0
 14
0.0
 24
0.0
 34
0.0
 15
0.0
 25
0.0
 35
0.0
146
0.0
 13
0.0
 23
0.0
 33
0.0
 16
1.0
 26
0.0
 36
0.0
 17
0.0
 27
1.0
 37
0.0
 76
     0
330
23
331
304
  0
LAYOUT
  5
22
102
{ACAD_REACTORS
330
1A
102
}
330
1A
100
AcDbPlotSettings
  1

  2
none_device
  4
Letter_(8.50_x_11.00_Inches)
  6

 40
6.35
 41
6.35
 42
6.35000508
 43
6.35000508
 44
215.9
 45
279.4
 46
0.0
 47
0.0
 48
0.0
 49
0.0
140
0.0
141
0.0
142
1.0
143
1.0
 70
  1712
 72
     0
 73
     0
 74
     0
  7

 75
     0
 76
     0
 77
     2
 78
   300
147
1.0
148
0.0
149
0.0
100
AcDbLayout
  1
Model
 70
     1
 71
     0
 10
0.0
 20
0.0
 11
12.0
 21
9.0
 12
0.0
 22
0.0
 32
0.0
 14
-3084.397520343072
 24
-8743.030534297368
 34
0.0
 15
1070.752970341116
 25
158.4225744750364
 35
0.0
146
0.0
 13
0.0
 23
0.0
 33
0.0
 16
1.0
 26
0.0
 36
0.0
 17
0.0
 27
1.0
 37
0.0
 76
     0
330
1F
331
29
  0
MATERIAL
  5
45
102
{ACAD_REACTORS
330
43
102
}
102
{ACAD_XDICTIONARY
360
340
102
}
330
43
100
AcDbMaterial
  1
ByBlock
  0
MATERIAL
  5
44
102
{ACAD_REACTORS
330
43
102
}
102
{ACAD_XDICTIONARY
360
33E
102
}
330
43
100
AcDbMaterial
  1
ByLayer
  0
MATERIAL
  5
46
102
{ACAD_REACTORS
330
43
102
}
102
{ACAD_XDICTIONARY
360
342
102
}
330
43
100
AcDbMaterial
  1
Global
  0
MLEADERSTYLE
  5
6C
102
{ACAD_REACTORS
330
6B
102
}
102
{ACAD_XDICTIONARY
360
348
102
}
330
6B
100
AcDbMLeaderStyle
170
     2
171
     1
172
     0
 90
        2
 40
0.0
 41
0.0
173
     1
 91
-1056964608
340
14
 92
       -2
290
     1
 42
0.09
291
     1
 43
0.36
  3
Standard
341
0
 44
0.18
300

342
11
174
     1
178
     6
175
     1
176
     0
 93
-1056964608
 45
0.18
292
     0
297
     0
 46
0.18
343
0
 94
-1056964608
 47
1.0
 49
1.0
140
1.0
293
     1
141
0.0
294
     1
177
     0
142
1.0
295
     0
296
     0
143
0.125
1001
ACAD_MLEADERVER
1070
     2
  0
MLINESTYLE
  5
18
102
{ACAD_REACTORS
330
17
102
}
330
17
100
AcDbMlineStyle
  2
Standard
 70
     0
  3

 62
   256
 51
90.0
 52
90.0
 71
     2
 49
0.5
 62
   256
  6
BYLAYER
 49
-0.5
 62
   256
  6
BYLAYER
  0
ACDBPLACEHOLDER
  5
F
102
{ACAD_REACTORS
330
E
102
}
330
E
  0
SCALE
  5
48
102
{ACAD_REACTORS
330
47
102
}
330
47
100
AcDbScale
 70
     0
300
1:1
140
1.0
141
1.0
290
     1
  0
SCALE
  5
49
102
{ACAD_REACTORS
330
47
102
}
330
47
100
AcDbScale
 70
     0
300
1:2
140
1.0
141
2.0
290
     0
  0
SCALE
  5
4A
102
{ACAD_REACTORS
330
47
102
}
330
47
100
AcDbScale
 70
     0
300
1:4
140
1.0
141
4.0
290
     0
  0
SCALE
  5
4B
102
{ACAD_REACTORS
330
47
102
}
330
47
100
AcDbScale
 70
     0
300
1:5
140
1.0
141
5.0
290
     0
  0
SCALE
  5
4C
102
{ACAD_REACTORS
330
47
102
}
330
47
100
AcDbScale
 70
     0
300
1:8
140
1.0
141
8.0
290
     0
  0
SCALE
  5
4D
102
{ACAD_REACTORS
330
47
102
}
330
47
100
AcDbScale
 70
     0
300
1:10
140
1.0
141
10.0
290
     0
  0
SCALE
  5
4E
102
{ACAD_REACTORS
330
47
102
}
330
47
100
AcDbScale
 70
     0
300
1:16
140
1.0
141
16.0
290
     0
  0
SCALE
  5
4F
102
{ACAD_REACTORS
330
47
102
}
330
47
100
AcDbScale
 70
     0
300
1:20
140
1.0
141
20.0
290
     0
  0
SCALE
  5
50
102
{ACAD_REACTORS
330
47
102
}
330
47
100
AcDbScale
 70
     0
300
1:30
140
1.0
141
30.0
290
     0
  0
SCALE
  5
51
102
{ACAD_REACTORS
330
47
102
}
330
47
100
AcDbScale
 70
     0
300
1:40
140
1.0
141
40.0
290
     0
  0
SCALE
  5
52
102
{ACAD_REACTORS
330
47
102
}
330
47
100
AcDbScale
 70
     0
300
1:50
140
1.0
141
50.0
290
     0
  0
SCALE
  5
53
102
{ACAD_REACTORS
330
47
102
}
330
47
100
AcDbScale
 70
     0
300
1:100
140
1.0
141
100.0
290
     0
  0
SCALE
  5
54
102
{ACAD_REACTORS
330
47
102
}
330
47
100
AcDbScale
 70
     0
300
2:1
140
2.0
141
1.0
290
     0
  0
SCALE
  5
55
102
{ACAD_REACTORS
330
47
102
}
330
47
100
AcDbScale
 70
     0
300
4:1
140
4.0
141
1.0
290
     0
  0
SCALE
  5
56
102
{ACAD_REACTORS
330
47
102
}
330
47
100
AcDbScale
 70
     0
300
8:1
140
8.0
141
1.0
290
     0
  0
SCALE
  5
57
102
{ACAD_REACTORS
330
47
102
}
330
47
100
AcDbScale
 70
     0
300
10:1
140
10.0
141
1.0
290
     0
  0
SCALE
  5
58
102
{ACAD_REACTORS
330
47
102
}
330
47
100
AcDbScale
 70
     0
300
100:1
140
100.0
141
1.0
290
     0
  0
SCALE
  5
59
102
{ACAD_REACTORS
330
47
102
}
330
47
100
AcDbScale
 70
     0
300
1/128" = 1'-0"
140
0.0078125
141
12.0
290
     0
  0
SCALE
  5
5A
102
{ACAD_REACTORS
330
47
102
}
330
47
100
AcDbScale
 70
     0
300
1/64" = 1'-0"
140
0.015625
141
12.0
290
     0
  0
SCALE
  5
5B
102
{ACAD_REACTORS
330
47
102
}
330
47
100
AcDbScale
 70
     0
300
1/32" = 1'-0"
140
0.03125
141
12.0
290
     0
  0
SCALE
  5
5C
102
{ACAD_REACTORS
330
47
102
}
330
47
100
AcDbScale
 70
     0
300
1/16" = 1'-0"
140
0.0625
141
12.0
290
     0
  0
SCALE
  5
5D
102
{ACAD_REACTORS
330
47
102
}
330
47
100
AcDbScale
 70
     0
300
3/32" = 1'-0"
140
0.09375
141
12.0
290
     0
  0
SCALE
  5
5E
102
{ACAD_REACTORS
330
47
102
}
330
47
100
AcDbScale
 70
     0
300
1/8" = 1'-0"
140
0.125
141
12.0
290
     0
  0
SCALE
  5
5F
102
{ACAD_REACTORS
330
47
102
}
330
47
100
AcDbScale
 70
     0
300
3/16" = 1'-0"
140
0.1875
141
12.0
290
     0
  0
SCALE
  5
60
102
{ACAD_REACTORS
330
47
102
}
330
47
100
AcDbScale
 70
     0
300
1/4" = 1'-0"
140
0.25
141
12.0
290
     0
  0
SCALE
  5
61
102
{ACAD_REACTORS
330
47
102
}
330
47
100
AcDbScale
 70
     0
300
3/8" = 1'-0"
140
0.375
141
12.0
290
     0
  0
SCALE
  5
62
102
{ACAD_REACTORS
330
47
102
}
330
47
100
AcDbScale
 70
     0
300
1/2" = 1'-0"
140
0.5
141
12.0
290
     0
  0
SCALE
  5
63
102
{ACAD_REACTORS
330
47
102
}
330
47
100
AcDbScale
 70
     0
300
3/4" = 1'-0"
140
0.75
141
12.0
290
     0
  0
SCALE
  5
64
102
{ACAD_REACTORS
330
47
102
}
330
47
100
AcDbScale
 70
     0
300
1" = 1'-0"
140
1.0
141
12.0
290
     0
  0
SCALE
  5
65
102
{ACAD_REACTORS
330
47
102
}
330
47
100
AcDbScale
 70
     0
300
1-1/2" = 1'-0"
140
1.5
141
12.0
290
     0
  0
SCALE
  5
66
102
{ACAD_REACTORS
330
47
102
}
330
47
100
AcDbScale
 70
     0
300
3" = 1'-0"
140
3.0
141
12.0
290
     0
  0
SCALE
  5
67
102
{ACAD_REACTORS
330
47
102
}
330
47
100
AcDbScale
 70
     0
300
6" = 1'-0"
140
6.0
141
12.0
290
     0
  0
SCALE
  5
68
102
{ACAD_REACTORS
330
47
102
}
330
47
100
AcDbScale
 70
     0
300
1'-0" = 1'-0"
140
12.0
141
12.0
290
     0
  0
TABLESTYLE
  5
6A
102
{ACAD_REACTORS
330
69
102
}
102
{ACAD_XDICTIONARY
360
344
102
}
330
69
100
AcDbTableStyle
  3
Standard
 70
     0
 71
     0
 40
0.06
 41
0.06
280
     0
281
     0
  7
Standard
140
0.18
170
     2
 62
     0
 63
   257
283
     0
274
    -2
284
     1
 64
     0
275
    -2
285
     1
 65
     0
276
    -2
286
     1
 66
     0
277
    -2
287
     1
 67
     0
278
    -2
288
     1
 68
     0
279
    -2
289
     1
 69
     0
  7
Standard
140
0.25
170
     5
 62
     0
 63
   257
283
     0
274
    -2
284
     1
 64
     0
275
    -2
285
     1
 65
     0
276
    -2
286
     1
 66
     0
277
    -2
287
     1
 67
     0
278
    -2
288
     1
 68
     0
279
    -2
289
     1
 69
     0
  7
Standard
140
0.18
170
     5
 62
     0
 63
   257
283
     0
274
    -2
284
     1
 64
     0
275
    -2
285
     1
 65
     0
276
    -2
286
     1
 66
     0
277
    -2
287
     1
 67
     0
278
    -2
288
     1
 68
     0
279
    -2
289
     1
 69
     0
  0
VISUALSTYLE
  5
2F
102
{ACAD_REACTORS
330
2A
102
}
102
{ACAD_XDICTIONARY
360
316
102
}
330
2A
100
AcDbVisualStyle
  2
2dWireframe
 70
     4
 71
     0
 72
     2
 73
     0
 90
        0
 40
0.6
 41
30.0
 62
     5
 63
     7
421
 16777215
 74
     1
 91
        4
 64
     7
 65
   257
 75
     1
175
     1
 42
1.0
 92
        0
 66
   257
 43
1.0
 76
     1
 77
     6
 78
     2
 67
     7
 79
     5
170
     0
171
     0
290
     0
174
     0
 93
        1
 44
0.0
173
     0
291
     0
 45
0.0
1001
ACAD
1000
AcDbSavedByObjectVersion
1070
     0
  0
VISUALSTYLE
  5
32
102
{ACAD_REACTORS
330
2A
102
}
102
{ACAD_XDICTIONARY
360
31C
102
}
330
2A
100
AcDbVisualStyle
  2
Basic
 70
     7
 71
     1
 72
     0
 73
     1
 90
        0
 40
0.6
 41
30.0
 62
     5
 63
     7
421
 16777215
 74
     0
 91
        4
 64
     7
 65
   257
 75
     1
175
     1
 42
1.0
 92
        8
 66
     7
 43
1.0
 76
     1
 77
     6
 78
     2
 67
     7
 79
     5
170
     0
171
     0
290
     0
174
     0
 93
        1
 44
0.0
173
     0
291
     1
 45
0.0
1001
ACAD
1000
AcDbSavedByObjectVersion
1070
     0
  0
VISUALSTYLE
  5
36
102
{ACAD_REACTORS
330
2A
102
}
102
{ACAD_XDICTIONARY
360
324
102
}
330
2A
100
AcDbVisualStyle
  2
Brighten
 70
    12
 71
     2
 72
     2
 73
     0
 90
        0
 40
0.6
 41
30.0
 62
     5
 63
     7
421
 16777215
 74
     1
 91
        4
 64
     7
 65
   257
 75
     1
175
     1
 42
1.0
 92
        8
 66
     7
 43
1.0
 76
     1
 77
     6
 78
     2
 67
     7
 79
     5
170
     0
171
     0
290
     0
174
     0
 93
        1
 44
50.0
173
     0
291
     1
 45
0.0
1001
ACAD
1000
AcDbSavedByObjectVersion
1070
     0
  0
VISUALSTYLE
  5
3A
102
{ACAD_REACTORS
330
2A
102
}
102
{ACAD_XDICTIONARY
360
32C
102
}
330
2A
100
AcDbVisualStyle
  2
ColorChange
 70
    16
 71
     2
 72
     2
 73
     3
 90
        0
 40
0.6
 41
30.0
 62
     5
 63
     8
421
  8421504
 74
     1
 91
        4
 64
     7
 65
   257
 75
     1
175
     1
 42
1.0
 92
        8
 66
     8
424
  8421504
 43
1.0
 76
     1
 77
     6
 78
     2
 67
     7
 79
     5
170
     0
171
     0
290
     0
174
     0
 93
        1
 44
0.0
173
     0
291
     1
 45
0.0
1001
ACAD
1000
AcDbSavedByObjectVersion
1070
     0
  0
VISUALSTYLE
  5
34
102
{ACAD_REACTORS
330
2A
102
}
102
{ACAD_XDICTIONARY
360
320
102
}
330
2A
100
AcDbVisualStyle
  2
Conceptual
 70
     9
 71
     3
 72
     2
 73
     0
 90
        0
 40
0.6
 41
30.0
 62
     5
 63
     7
421
 16777215
 74
     2
 91
        2
 64
     7
 65
   257
 75
     1
175
     1
 42
179.0
 92
        8
 66
     7
 43
1.0
 76
     1
 77
     6
 78
     2
 67
     7
 79
     3
170
     0
171
     0
290
     0
174
     0
 93
        1
 44
0.0
173
     0
291
     0
 45
0.0
1001
ACAD
1000
AcDbSavedByObjectVersion
1070
     0
  0
VISUALSTYLE
  5
35
102
{ACAD_REACTORS
330
2A
102
}
102
{ACAD_XDICTIONARY
360
322
102
}
330
2A
100
AcDbVisualStyle
  2
Dim
 70
    11
 71
     2
 72
     2
 73
     0
 90
        0
 40
0.6
 41
30.0
 62
     5
 63
     7
421
 16777215
 74
     1
 91
        4
 64
     7
 65
   257
 75
     1
175
     1
 42
1.0
 92
        8
 66
     7
 43
1.0
 76
     1
 77
     6
 78
     2
 67
     7
 79
     5
170
     0
171
     0
290
     0
174
     0
 93
        1
 44
-50.0
173
     0
291
     1
 45
0.0
1001
ACAD
1000
AcDbSavedByObjectVersion
1070
     0
  0
VISUALSTYLE
  5
3D
102
{ACAD_REACTORS
330
2A
102
}
102
{ACAD_XDICTIONARY
360
332
102
}
330
2A
100
AcDbVisualStyle
  2
EdgeColorOff
 70
    22
 71
     2
 72
     2
 73
     0
 90
        0
 40
0.6
 41
30.0
 62
     5
 63
     7
421
 16777215
 74
     1
 91
        4
 64
     7
 65
   257
 75
     1
175
     1
 42
1.0
 92
        8
 66
     7
 43
1.0
 76
     1
 77
     6
 78
     2
 67
     7
 79
     5
170
     0
171
     0
290
     0
174
     0
 93
        1
 44
0.0
173
     0
291
     1
 45
0.0
1001
ACAD
1000
AcDbSavedByObjectVersion
1070
     0
  0
VISUALSTYLE
  5
39
102
{ACAD_REACTORS
330
2A
102
}
102
{ACAD_XDICTIONARY
360
32A
102
}
330
2A
100
AcDbVisualStyle
  2
Facepattern
 70
    15
 71
     2
 72
     2
 73
     0
 90
        0
 40
0.6
 41
30.0
 62
     5
 63
     7
421
 16777215
 74
     1
 91
        4
 64
     7
 65
   257
 75
     1
175
     1
 42
1.0
 92
        8
 66
     7
 43
1.0
 76
     1
 77
     6
 78
     2
 67
     7
 79
     5
170
     0
171
     0
290
     0
174
     0
 93
        1
 44
0.0
173
     0
291
     1
 45
0.0
1001
ACAD
1000
AcDbSavedByObjectVersion
1070
     0
  0
VISUALSTYLE
  5
2B
102
{ACAD_REACTORS
330
2A
102
}
102
{ACAD_XDICTIONARY
360
30E
102
}
330
2A
100
AcDbVisualStyle
  2
Flat
 70
     0
 71
     2
 72
     1
 73
     1
 90
        2
 40
0.6
 41
30.0
 62
     5
 63
     7
421
 16777215
 74
     0
 91
        0
 64
     7
 65
   257
 75
     1
175
     1
 42
1.0
 92
        8
 66
     7
 43
1.0
 76
     1
 77
     6
 78
     2
 67
     7
 79
     5
170
     0
171
     0
290
     0
174
     0
 93
       13
 44
0.0
173
     0
291
     1
 45
0.0
1001
ACAD
1000
AcDbSavedByObjectVersion
1070
     0
  0
VISUALSTYLE
  5
2C
102
{ACAD_REACTORS
330
2A
102
}
102
{ACAD_XDICTIONARY
360
310
102
}
330
2A
100
AcDbVisualStyle
  2
FlatWithEdges
 70
     1
 71
     2
 72
     1
 73
     1
 90
        2
 40
0.6
 41
30.0
 62
     5
 63
     7
421
 16777215
 74
     1
 91
        0
 64
     7
 65
   257
 75
     1
175
     1
 42
1.0
 92
        0
 66
   257
 43
1.0
 76
     1
 77
     6
 78
     2
 67
     7
 79
     5
170
     0
171
     0
290
     0
174
     0
 93
       13
 44
0.0
173
     0
291
     1
 45
0.0
1001
ACAD
1000
AcDbSavedByObjectVersion
1070
     0
  0
VISUALSTYLE
  5
2D
102
{ACAD_REACTORS
330
2A
102
}
102
{ACAD_XDICTIONARY
360
312
102
}
330
2A
100
AcDbVisualStyle
  2
Gouraud
 70
     2
 71
     2
 72
     2
 73
     1
 90
        2
 40
0.6
 41
30.0
 62
     5
 63
     7
421
 16777215
 74
     0
 91
        0
 64
     7
 65
   257
 75
     1
175
     1
 42
1.0
 92
        0
 66
     7
 43
1.0
 76
     1
 77
     6
 78
     2
 67
     7
 79
     5
170
     0
171
     0
290
     0
174
     0
 93
       13
 44
0.0
173
     0
291
     1
 45
0.0
1001
ACAD
1000
AcDbSavedByObjectVersion
1070
     0
  0
VISUALSTYLE
  5
2E
102
{ACAD_REACTORS
330
2A
102
}
102
{ACAD_XDICTIONARY
360
314
102
}
330
2A
100
AcDbVisualStyle
  2
GouraudWithEdges
 70
     3
 71
     2
 72
     2
 73
     1
 90
        2
 40
0.6
 41
30.0
 62
     5
 63
     7
421
 16777215
 74
     1
 91
        0
 64
     7
 65
   257
 75
     1
175
     1
 42
1.0
 92
        0
 66
   257
 43
1.0
 76
     1
 77
     6
 78
     2
 67
     7
 79
     5
170
     0
171
     0
290
     0
174
     0
 93
       13
 44
0.0
173
     0
291
     1
 45
0.0
1001
ACAD
1000
AcDbSavedByObjectVersion
1070
     0
  0
VISUALSTYLE
  5
31
102
{ACAD_REACTORS
330
2A
102
}
102
{ACAD_XDICTIONARY
360
31A
102
}
330
2A
100
AcDbVisualStyle
  2
Hidden
 70
     6
 71
     1
 72
     2
 73
     2
 90
        0
 40
0.6
 41
30.0
 62
     5
 63
     7
421
 16777215
 74
     2
 91
        2
 64
     7
 65
   257
 75
     2
175
     1
 42
40.0
 92
        0
 66
   257
 43
1.0
 76
     1
 77
     6
 78
     2
 67
     7
 79
     3
170
     0
171
     0
290
     0
174
     0
 93
        1
 44
0.0
173
     0
291
     0
 45
0.0
1001
ACAD
1000
AcDbSavedByObjectVersion
1070
     0
  0
VISUALSTYLE
  5
3B
102
{ACAD_REACTORS
330
2A
102
}
102
{ACAD_XDICTIONARY
360
32E
102
}
330
2A
100
AcDbVisualStyle
  2
JitterOff
 70
    20
 71
     2
 72
     2
 73
     0
 90
        0
 40
0.6
 41
30.0
 62
     5
 63
     7
421
 16777215
 74
     1
 91
        4
 64
     7
 65
   257
 75
     1
175
     1
 42
1.0
 92
       10
 66
     7
 43
1.0
 76
     1
 77
     6
 78
     2
 67
     7
 79
     5
170
     0
171
     0
290
     0
174
     0
 93
        1
 44
0.0
173
     0
291
     1
 45
0.0
1001
ACAD
1000
AcDbSavedByObjectVersion
1070
     0
  0
VISUALSTYLE
  5
38
102
{ACAD_REACTORS
330
2A
102
}
102
{ACAD_XDICTIONARY
360
328
102
}
330
2A
100
AcDbVisualStyle
  2
Linepattern
 70
    14
 71
     2
 72
     2
 73
     0
 90
        0
 40
0.6
 41
30.0
 62
     5
 63
     7
421
 16777215
 74
     1
 91
        4
 64
     7
 65
   257
 75
     7
175
     7
 42
1.0
 92
        8
 66
     7
 43
1.0
 76
     1
 77
     6
 78
     2
 67
     7
 79
     5
170
     0
171
     0
290
     0
174
     0
 93
        1
 44
0.0
173
     0
291
     1
 45
0.0
1001
ACAD
1000
AcDbSavedByObjectVersion
1070
     0
  0
VISUALSTYLE
  5
3C
102
{ACAD_REACTORS
330
2A
102
}
102
{ACAD_XDICTIONARY
360
330
102
}
330
2A
100
AcDbVisualStyle
  2
OverhangOff
 70
    21
 71
     2
 72
     2
 73
     0
 90
        0
 40
0.6
 41
30.0
 62
     5
 63
     7
421
 16777215
 74
     1
 91
        4
 64
     7
 65
   257
 75
     1
175
     1
 42
1.0
 92
        9
 66
     7
 43
1.0
 76
     1
 77
     6
 78
     2
 67
     7
 79
     5
170
     0
171
     0
290
     0
174
     0
 93
        1
 44
0.0
173
     0
291
     1
 45
0.0
1001
ACAD
1000
AcDbSavedByObjectVersion
1070
     0
  0
VISUALSTYLE
  5
33
102
{ACAD_REACTORS
330
2A
102
}
102
{ACAD_XDICTIONARY
360
31E
102
}
330
2A
100
AcDbVisualStyle
  2
Realistic
 70
     8
 71
     2
 72
     3
 73
     0
 90
        2
 40
0.6
 41
30.0
 62
     5
 63
     7
421
 16777215
 74
     0
 91
        0
 64
     7
 65
   257
 75
     1
175
     1
 42
1.0
 92
        8
 66
   257
 43
1.0
 76
     1
 77
     6
 78
     2
 67
     7
 79
     3
170
     0
171
     0
290
     0
174
     0
 93
       13
 44
0.0
173
     0
291
     0
 45
0.0
1001
ACAD
1000
AcDbSavedByObjectVersion
1070
     0
  0
VISUALSTYLE
  5
42
102
{ACAD_REACTORS
330
2A
102
}
102
{ACAD_XDICTIONARY
360
33C
102
}
330
2A
100
AcDbVisualStyle
  2
Shaded
 70
    27
 71
     2
 72
     2
 73
     1
 90
        2
 40
0.6
 41
30.0
 62
     5
 63
     7
421
 16777215
 74
     0
 91
        4
 64
     7
 65
   257
 75
     1
175
     1
 42
1.0
 92
        8
 66
   257
 43
1.0
 76
     1
 77
     6
 78
     2
 67
     8
425
  7895160
 79
     3
170
     0
171
     0
290
     0
174
     0
 93
        5
 44
0.0
173
     0
291
     0
 45
0.0
1001
ACAD
1000
AcDbSavedByObjectVersion
1070
     0
  0
VISUALSTYLE
  5
41
102
{ACAD_REACTORS
330
2A
102
}
102
{ACAD_XDICTIONARY
360
33A
102
}
330
2A
100
AcDbVisualStyle
  2
Shaded with edges
 70
    26
 71
     2
 72
     2
 73
     1
 90
        2
 40
0.6
 41
30.0
 62
     5
 63
     7
421
 16777215
 74
     1
 91
       10
 64
     7
 65
   257
 75
     2
175
     1
 42
1.0
 92
        8
 66
   257
 43
1.0
 76
     1
 77
     6
 78
     2
 67
     7
 79
     3
170
     0
171
     0
290
     0
174
     0
 93
        5
 44
0.0
173
     0
291
     0
 45
0.0
1001
ACAD
1000
AcDbSavedByObjectVersion
1070
     0
  0
VISUALSTYLE
  5
3E
102
{ACAD_REACTORS
330
2A
102
}
102
{ACAD_XDICTIONARY
360
334
102
}
330
2A
100
AcDbVisualStyle
  2
Shades of Gray
 70
    23
 71
     2
 72
     2
 73
     3
 90
        0
 40
0.6
 41
30.0
 62
     5
 63
     7
421
 16777215
 74
     2
 91
        2
 64
     7
 65
     7
 75
     1
175
     1
 42
40.0
 92
        8
 66
     7
 43
1.0
 76
     1
 77
     6
 78
     2
 67
     7
 79
     3
170
     0
171
     0
290
     0
174
     0
 93
        1
 44
0.0
173
     0
291
     0
 45
0.0
1001
ACAD
1000
AcDbSavedByObjectVersion
1070
     0
  0
VISUALSTYLE
  5
3F
102
{ACAD_REACTORS
330
2A
102
}
102
{ACAD_XDICTIONARY
360
336
102
}
330
2A
100
AcDbVisualStyle
  2
Sketchy
 70
    24
 71
     1
 72
     2
 73
     2
 90
        0
 40
0.6
 41
30.0
 62
     5
 63
     7
421
 16777215
 74
     2
 91
        2
 64
     7
 65
     7
 75
     1
175
     1
 42
40.0
 92
       11
 66
     7
 43
1.0
 76
     1
 77
     6
 78
     2
 67
     7
 79
     6
170
     0
171
     0
290
     0
174
     0
 93
        1
 44
0.0
173
     0
291
     0
 45
0.0
1001
ACAD
1000
AcDbSavedByObjectVersion
1070
     0
  0
VISUALSTYLE
  5
37
102
{ACAD_REACTORS
330
2A
102
}
102
{ACAD_XDICTIONARY
360
326
102
}
330
2A
100
AcDbVisualStyle
  2
Thicken
 70
    13
 71
     2
 72
     2
 73
     0
 90
        0
 40
0.6
 41
30.0
 62
     5
 63
     7
421
 16777215
 74
     1
 91
        4
 64
     7
 65
   257
 75
     1
175
     1
 42
1.0
 92
       12
 66
     7
 43
1.0
 76
     1
 77
     6
 78
     2
 67
     7
 79
     5
170
     0
171
     0
290
     0
174
     0
 93
        1
 44
0.0
173
     0
291
     1
 45
0.0
1001
ACAD
1000
AcDbSavedByObjectVersion
1070
     0
  0
VISUALSTYLE
  5
30
102
{ACAD_REACTORS
330
2A
102
}
102
{ACAD_XDICTIONARY
360
318
102
}
330
2A
100
AcDbVisualStyle
  2
Wireframe
 70
     5
 71
     0
 72
     2
 73
     0
 90
        0
 40
0.6
 41
30.0
 62
     5
 63
     7
421
 16777215
 74
     1
 91
        4
 64
     7
 65
   257
 75
     1
175
     1
 42
1.0
 92
        0
 66
   257
 43
1.0
 76
     1
 77
     6
 78
     2
 67
     7
 79
     3
170
     0
171
     0
290
     0
174
     0
 93
        1
 44
0.0
173
     0
291
     0
 45
0.0
1001
ACAD
1000
AcDbSavedByObjectVersion
1070
     0
  0
VISUALSTYLE
  5
40
102
{ACAD_REACTORS
330
2A
102
}
102
{ACAD_XDICTIONARY
360
338
102
}
330
2A
100
AcDbVisualStyle
  2
X-Ray
 70
    25
 71
     2
 72
     2
 73
     1
 90
        1
 40
0.5
 41
30.0
 62
     5
 63
     7
421
 16777215
 74
     1
 91
        0
 64
     7
 65
   257
 75
     1
175
     1
 42
1.0
 92
        8
 66
     7
 43
1.0
 76
     1
 77
     6
 78
     2
 67
     7
 79
     3
170
     0
171
     0
290
     0
174
     0
 93
       13
 44
0.0
173
     0
291
     0
 45
0.0
1001
ACAD
1000
AcDbSavedByObjectVersion
1070
     0
  0
DICTIONARYVAR
  5
30B
102
{ACAD_REACTORS
330
30A
102
}
330
30A
100
DictionaryVariables
280
     0
  1
1:1
  0
DICTIONARYVAR
  5
34C
102
{ACAD_REACTORS
330
30A
102
}
330
30A
100
DictionaryVariables
280
     0
  1
Standard
  0
DICTIONARYVAR
  5
34B
102
{ACAD_REACTORS
330
30A
102
}
330
30A
100
DictionaryVariables
280
     0
  1
Standard
  0
DICTIONARYVAR
  5
30C
102
{ACAD_REACTORS
330
30A
102
}
330
30A
100
DictionaryVariables
280
     0
  1
1
  0
DICTIONARYVAR
  5
30D
102
{ACAD_REACTORS
330
30A
102
}
330
30A
100
DictionaryVariables
280
     0
  1
2
  0
DICTIONARY
  5
340
330
45
100
AcDbDictionary
280
     1
281
     1
  3
ACAD_XREC_ROUNDTRIP
360
341
  0
DICTIONARY
  5
33E
330
44
100
AcDbDictionary
280
     1
281
     1
  3
ACAD_XREC_ROUNDTRIP
360
33F
  0
DICTIONARY
  5
342
330
46
100
AcDbDictionary
280
     1
281
     1
  3
ACAD_XREC_ROUNDTRIP
360
343
  0
DICTIONARY
  5
348
330
6C
100
AcDbDictionary
280
     1
281
     1
  3
ACAD_XREC_ROUNDTRIP
360
349
  0
DICTIONARY
  5
344
330
6A
100
AcDbDictionary
280
     1
281
     1
  3
ACAD_ROUNDTRIP_2008_TABLESTYLE_CELLSTYLEMAP
360
346
  3
ACAD_XREC_ROUNDTRIP
360
345
  0
DICTIONARY
  5
316
330
2F
100
AcDbDictionary
280
     1
281
     1
  3
ACAD_XREC_ROUNDTRIP
360
317
  0
DICTIONARY
  5
31C
330
32
100
AcDbDictionary
280
     1
281
     1
  3
ACAD_XREC_ROUNDTRIP
360
31D
  0
DICTIONARY
  5
324
330
36
100
AcDbDictionary
280
     1
281
     1
  3
ACAD_XREC_ROUNDTRIP
360
325
  0
DICTIONARY
  5
32C
330
3A
100
AcDbDictionary
280
     1
281
     1
  3
ACAD_XREC_ROUNDTRIP
360
32D
  0
DICTIONARY
  5
320
330
34
100
AcDbDictionary
280
     1
281
     1
  3
ACAD_XREC_ROUNDTRIP
360
321
  0
DICTIONARY
  5
322
330
35
100
AcDbDictionary
280
     1
281
     1
  3
ACAD_XREC_ROUNDTRIP
360
323
  0
DICTIONARY
  5
332
330
3D
100
AcDbDictionary
280
     1
281
     1
  3
ACAD_XREC_ROUNDTRIP
360
333
  0
DICTIONARY
  5
32A
330
39
100
AcDbDictionary
280
     1
281
     1
  3
ACAD_XREC_ROUNDTRIP
360
32B
  0
DICTIONARY
  5
30E
330
2B
100
AcDbDictionary
280
     1
281
     1
  3
ACAD_XREC_ROUNDTRIP
360
30F
  0
DICTIONARY
  5
310
330
2C
100
AcDbDictionary
280
     1
281
     1
  3
ACAD_XREC_ROUNDTRIP
360
311
  0
DICTIONARY
  5
312
330
2D
100
AcDbDictionary
280
     1
281
     1
  3
ACAD_XREC_ROUNDTRIP
360
313
  0
DICTIONARY
  5
314
330
2E
100
AcDbDictionary
280
     1
281
     1
  3
ACAD_XREC_ROUNDTRIP
360
315
  0
DICTIONARY
  5
31A
330
31
100
AcDbDictionary
280
     1
281
     1
  3
ACAD_XREC_ROUNDTRIP
360
31B
  0
DICTIONARY
  5
32E
330
3B
100
AcDbDictionary
280
     1
281
     1
  3
ACAD_XREC_ROUNDTRIP
360
32F
  0
DICTIONARY
  5
328
330
38
100
AcDbDictionary
280
     1
281
     1
  3
ACAD_XREC_ROUNDTRIP
360
329
  0
DICTIONARY
  5
330
330
3C
100
AcDbDictionary
280
     1
281
     1
  3
ACAD_XREC_ROUNDTRIP
360
331
  0
DICTIONARY
  5
31E
330
33
100
AcDbDictionary
280
     1
281
     1
  3
ACAD_XREC_ROUNDTRIP
360
31F
  0
DICTIONARY
  5
33C
330
42
100
AcDbDictionary
280
     1
281
     1
  3
ACAD_XREC_ROUNDTRIP
360
33D
  0
DICTIONARY
  5
33A
330
41
100
AcDbDictionary
280
     1
281
     1
  3
ACAD_XREC_ROUNDTRIP
360
33B
  0
DICTIONARY
  5
334
330
3E
100
AcDbDictionary
280
     1
281
     1
  3
ACAD_XREC_ROUNDTRIP
360
335
  0
DICTIONARY
  5
336
330
3F
100
AcDbDictionary
280
     1
281
     1
  3
ACAD_XREC_ROUNDTRIP
360
337
  0
DICTIONARY
  5
326
330
37
100
AcDbDictionary
280
     1
281
     1
  3
ACAD_XREC_ROUNDTRIP
360
327
  0
DICTIONARY
  5
318
330
30
100
AcDbDictionary
280
     1
281
     1
  3
ACAD_XREC_ROUNDTRIP
360
319
  0
DICTIONARY
  5
338
330
40
100
AcDbDictionary
280
     1
281
     1
  3
ACAD_XREC_ROUNDTRIP
360
339
  0
XRECORD
  5
341
102
{ACAD_REACTORS
330
340
102
}
330
340
100
AcDbXrecord
280
     1
102
MATERIAL
148
0.0
149
0.0
149
0.0
 93
        0
 94
      127
282
     0
 72
     1
 77
     1
171
     1
175
     1
179
     1
273
     0
  0
XRECORD
  5
33F
102
{ACAD_REACTORS
330
33E
102
}
330
33E
100
AcDbXrecord
280
     1
102
MATERIAL
148
0.0
149
0.0
149
0.0
 93
        0
 94
      127
282
     0
 72
     1
 77
     1
171
     1
175
     1
179
     1
273
     0
  0
XRECORD
  5
343
102
{ACAD_REACTORS
330
342
102
}
330
342
100
AcDbXrecord
280
     1
102
MATERIAL
148
0.0
149
0.0
149
0.0
 93
        0
 94
      127
282
     0
 72
     1
 77
     1
171
     1
175
     1
179
     1
273
     0
  0
XRECORD
  5
349
102
{ACAD_REACTORS
330
348
102
}
330
348
100
AcDbXrecord
280
     1
102
ACAD_ROUNDTRIP_2010_MLEADER_STYLE
  0
CELLSTYLEMAP
  5
346
102
{ACAD_REACTORS
330
344
102
}
330
344
100
AcDbCellStyleMap
 90
        3
300
CELLSTYLE
  1
TABLEFORMAT_BEGIN
 90
        5
170
     1
 91
        0
 92
    32768
 62
   257
 93
        1
300
CONTENTFORMAT
  1
CONTENTFORMAT_BEGIN
 90
        0
 91
        0
 92
        4
 93
        0
300

 40
0.0
140
1.0
 94
        5
 62
     0
340
11
144
0.25
309
CONTENTFORMAT_END
171
     1
301
MARGIN
  1
CELLMARGIN_BEGIN
 40
0.06
 40
0.06
 40
0.06
 40
0.06
 40
0.06
 40
0.06
309
CELLMARGIN_END
 94
        6
 95
        1
302
GRIDFORMAT
  1
GRIDFORMAT_BEGIN
 90
        0
 91
        1
 62
     0
 92
       -2
340
14
 93
        0
 40
0.045
309
GRIDFORMAT_END
 95
        2
302
GRIDFORMAT
  1
GRIDFORMAT_BEGIN
 90
        0
 91
        1
 62
     0
 92
       -2
340
14
 93
        0
 40
0.045
309
GRIDFORMAT_END
 95
        4
302
GRIDFORMAT
  1
GRIDFORMAT_BEGIN
 90
        0
 91
        1
 62
     0
 92
       -2
340
14
 93
        0
 40
0.045
309
GRIDFORMAT_END
 95
        8
302
GRIDFORMAT
  1
GRIDFORMAT_BEGIN
 90
        0
 91
        1
 62
     0
 92
       -2
340
14
 93
        0
 40
0.045
309
GRIDFORMAT_END
 95
       16
302
GRIDFORMAT
  1
GRIDFORMAT_BEGIN
 90
        0
 91
        1
 62
     0
 92
       -2
340
14
 93
        0
 40
0.045
309
GRIDFORMAT_END
 95
       32
302
GRIDFORMAT
  1
GRIDFORMAT_BEGIN
 90
        0
 91
        1
 62
     0
 92
       -2
340
14
 93
        0
 40
0.045
309
GRIDFORMAT_END
309
TABLEFORMAT_END
  1
CELLSTYLE_BEGIN
 90
        1
 91
        1
300
_TITLE
309
CELLSTYLE_END
300
CELLSTYLE
  1
TABLEFORMAT_BEGIN
 90
        5
170
     1
 91
        0
 92
        0
 62
   257
 93
        1
300
CONTENTFORMAT
  1
CONTENTFORMAT_BEGIN
 90
        0
 91
        0
 92
        4
 93
        0
300

 40
0.0
140
1.0
 94
        5
 62
     0
340
11
144
0.18
309
CONTENTFORMAT_END
171
     1
301
MARGIN
  1
CELLMARGIN_BEGIN
 40
0.06
 40
0.06
 40
0.06
 40
0.06
 40
0.06
 40
0.06
309
CELLMARGIN_END
 94
        6
 95
        1
302
GRIDFORMAT
  1
GRIDFORMAT_BEGIN
 90
        0
 91
        1
 62
     0
 92
       -2
340
14
 93
        0
 40
0.045
309
GRIDFORMAT_END
 95
        2
302
GRIDFORMAT
  1
GRIDFORMAT_BEGIN
 90
        0
 91
        1
 62
     0
 92
       -2
340
14
 93
        0
 40
0.045
309
GRIDFORMAT_END
 95
        4
302
GRIDFORMAT
  1
GRIDFORMAT_BEGIN
 90
        0
 91
        1
 62
     0
 92
       -2
340
14
 93
        0
 40
0.045
309
GRIDFORMAT_END
 95
        8
302
GRIDFORMAT
  1
GRIDFORMAT_BEGIN
 90
        0
 91
        1
 62
     0
 92
       -2
340
14
 93
        0
 40
0.045
309
GRIDFORMAT_END
 95
       16
302
GRIDFORMAT
  1
GRIDFORMAT_BEGIN
 90
        0
 91
        1
 62
     0
 92
       -2
340
14
 93
        0
 40
0.045
309
GRIDFORMAT_END
 95
       32
302
GRIDFORMAT
  1
GRIDFORMAT_BEGIN
 90
        0
 91
        1
 62
     0
 92
       -2
340
14
 93
        0
 40
0.045
309
GRIDFORMAT_END
309
TABLEFORMAT_END
  1
CELLSTYLE_BEGIN
 90
        2
 91
        1
300
_HEADER
309
CELLSTYLE_END
300
CELLSTYLE
  1
TABLEFORMAT_BEGIN
 90
        5
170
     1
 91
        0
 92
        0
 62
   257
 93
        1
300
CONTENTFORMAT
  1
CONTENTFORMAT_BEGIN
 90
        0
 91
        0
 92
        4
 93
        0
300

 40
0.0
140
1.0
 94
        2
 62
     0
340
11
144
0.18
309
CONTENTFORMAT_END
171
     1
301
MARGIN
  1
CELLMARGIN_BEGIN
 40
0.06
 40
0.06
 40
0.06
 40
0.06
 40
0.06
 40
0.06
309
CELLMARGIN_END
 94
        6
 95
        1
302
GRIDFORMAT
  1
GRIDFORMAT_BEGIN
 90
        0
 91
        1
 62
     0
 92
       -2
340
14
 93
        0
 40
0.045
309
GRIDFORMAT_END
 95
        2
302
GRIDFORMAT
  1
GRIDFORMAT_BEGIN
 90
        0
 91
        1
 62
     0
 92
       -2
340
14
 93
        0
 40
0.045
309
GRIDFORMAT_END
 95
        4
302
GRIDFORMAT
  1
GRIDFORMAT_BEGIN
 90
        0
 91
        1
 62
     0
 92
       -2
340
14
 93
        0
 40
0.045
309
GRIDFORMAT_END
 95
        8
302
GRIDFORMAT
  1
GRIDFORMAT_BEGIN
 90
        0
 91
        1
 62
     0
 92
       -2
340
14
 93
        0
 40
0.045
309
GRIDFORMAT_END
 95
       16
302
GRIDFORMAT
  1
GRIDFORMAT_BEGIN
 90
        0
 91
        1
 62
     0
 92
       -2
340
14
 93
        0
 40
0.045
309
GRIDFORMAT_END
 95
       32
302
GRIDFORMAT
  1
GRIDFORMAT_BEGIN
 90
        0
 91
        1
 62
     0
 92
       -2
340
14
 93
        0
 40
0.045
309
GRIDFORMAT_END
309
TABLEFORMAT_END
  1
CELLSTYLE_BEGIN
 90
        3
 91
        2
300
_DATA
309
CELLSTYLE_END
  0
XRECORD
  5
345
102
{ACAD_REACTORS
330
344
102
}
330
344
100
AcDbXrecord
280
     1
102
ACAD_ROUNDTRIP_PRE2007_TABLESTYLE
 90
        4
 91
        0
  1

 92
        4
 93
        0
  2

 94
        4
 95
        0
  3

  0
XRECORD
  5
317
102
{ACAD_REACTORS
330
316
102
}
330
316
100
AcDbXrecord
280
     1
102
RTVSPropertyOp0
 70
     1
102
RTVSPropertyOp1
 70
     1
102
RTVSPropertyOp2
 70
     1
102
RTVSPropertyOp3
 70
     1
102
RTVSPropertyOp4
 70
     1
102
RTVSPropertyOp5
 70
     1
102
RTVSPropertyOp6
 70
     1
102
RTVSPropertyOp7
 70
     1
102
RTVSPropertyOp8
 70
     1
102
RTVSPropertyOp9
 70
     1
102
RTVSPropertyOp10
 70
     1
102
RTVSPropertyOp11
 70
     1
102
RTVSPropertyOp12
 70
     1
102
RTVSPropertyOp13
 70
     1
102
RTVSPropertyOp14
 70
     1
102
RTVSPropertyOp15
 70
     1
102
RTVSPropertyOp16
 70
     1
102
RTVSPropertyOp17
 70
     1
102
RTVSPropertyOp18
 70
     1
102
RTVSPropertyOp19
 70
     1
102
RTVSPropertyOp20
 70
     1
102
RTVSPropertyOp21
 70
     1
102
RTVSPropertyOp22
 70
     1
102
RTVSPropertyOp23
 70
     1
102
RTVSPropertyOp24
 70
     1
102
RTVSPropertyOp25
 70
     1
102
RTVSPropertyOp26
 70
     1
102
RTVSPropertyOp27
 70
     1
102
RTVSPropertyOp28
 70
     1
102
RTVSPropertyOp29
 70
     1
102
RTVSPropertyOp30
 70
     1
102
RTVSPropertyOp31
 70
     1
102
RTVSPropertyOp32
 70
     1
102
RTVSPropertyOp33
 70
     1
102
RTVSPropertyOp34
 70
     1
102
RTVSPropertyOp35
 70
     1
102
RTVSPropertyOp36
 70
     1
102
RTVSPropertyOp37
 70
     1
102
RTVSPropertyOp38
 70
     1
102
RTVSPropertyOp39
 70
     1
102
RTVSPropertyOp40
 70
     1
102
RTVSPropertyOp41
 70
     1
102
RTVSPropertyOp42
 70
     1
102
RTVSPropertyOp43
 70
     1
102
RTVSPropertyOp44
 70
     1
102
RTVSPropertyOp45
 70
     1
102
RTVSPropertyOp46
 70
     1
102
RTVSPropertyOp47
 70
     1
102
RTVSPropertyOp48
 70
     1
102
RTVSPropertyOp49
 70
     1
102
RTVSPropertyOp50
 70
     1
102
RTVSPropertyOp51
 70
     0
102
RTVSPropertyOp52
 70
     0
102
RTVSPropertyOp53
 70
     1
102
RTVSPropertyOp54
 70
     1
102
RTVSPropertyOp55
 70
     1
102
RTVSPropertyOp56
 70
     1
102
RTVSPropertyOp57
 70
     1
102
RTVSPost2010Prop28
280
     1
102
RTVSPost2010PropOp28
 70
     1
102
RTVSPost2010Prop29
280
     1
102
RTVSPost2010PropOp29
 70
     1
102
RTVSPost2010Prop30
280
     0
102
RTVSPost2010PropOp30
 70
     1
102
RTVSPost2010Prop31
280
     0
102
RTVSPost2010PropOp31
 70
     1
102
RTVSPost2010Prop32
280
     0
102
RTVSPost2010PropOp32
 70
     1
102
RTVSPost2010Prop33
280
     0
102
RTVSPost2010PropOp33
 70
     1
102
RTVSPost2010Prop34
280
     0
102
RTVSPost2010PropOp34
 70
     1
102
RTVSPost2010Prop35
280
     0
102
RTVSPost2010PropOp35
 70
     1
102
RTVSPost2010Prop36
280
     0
102
RTVSPost2010PropOp36
 70
     1
102
RTVSPost2010Prop37
 90
       50
102
RTVSPost2010PropOp37
 70
     1
102
RTVSPost2010Prop38
140
0.0
102
RTVSPost2010PropOp38
 70
     1
102
RTVSPost2010Prop39
140
1.0
102
RTVSPost2010PropOp39
 70
     1
102
RTVSPost2010Prop40
 90
        0
102
RTVSPost2010PropOp40
 70
     1
102
RTVSPost2010Prop41ColorIndex
 90
       18
102
RTVSPost2010Prop41ColorRGB
 90
        0
102
RTVSPost2010PropOp41
 70
     1
102
RTVSPost2010Prop42
 90
       50
102
RTVSPost2010PropOp42
 70
     1
102
RTVSPost2010Prop43
 90
        3
102
RTVSPost2010PropOp43
 70
     1
102
RTVSPost2010Prop44ColorIndex
 90
        5
102
RTVSPost2010Prop44ColorRGB
 90
      255
102
RTVSPost2010PropOp44
 70
     1
102
RTVSPost2010Prop45
280
     0
102
RTVSPost2010PropOp45
 70
     1
102
RTVSPost2010Prop46
 90
       50
102
RTVSPost2010PropOp46
 70
     1
102
RTVSPost2010Prop47
 90
       50
102
RTVSPost2010PropOp47
 70
     1
102
RTVSPost2010Prop48
 90
       50
102
RTVSPost2010PropOp48
 70
     1
102
RTVSPost2010Prop49
280
     0
102
RTVSPost2010PropOp49
 70
     1
102
RTVSPost2010Prop50
 90
       50
102
RTVSPost2010PropOp50
 70
     1
102
RTVSPost2010Prop51ColorIndex
 90
      256
102
RTVSPost2010Prop51ColorRGB
 90
-16777216
102
RTVSPost2010PropOp51
 70
     0
102
RTVSPost2010Prop52
140
1.0
102
RTVSPost2010PropOp52
 70
     0
102
RTVSPost2010Prop53
 90
        2
102
RTVSPost2010PropOp53
 70
     1
102
RTVSPost2010Prop54
  1
strokes_ogs.tif
102
RTVSPost2010PropOp54
 70
     1
102
RTVSPost2010Prop55
280
     0
102
RTVSPost2010PropOp55
 70
     1
102
RTVSPost2010Prop56
140
1.0
102
RTVSPost2010PropOp56
 70
     1
102
RTVSPost2010Prop57
140
1.0
102
RTVSPost2010PropOp57
 70
     1
  0
XRECORD
  5
31D
102
{ACAD_REACTORS
330
31C
102
}
330
31C
100
AcDbXrecord
280
     1
102
RTVSPropertyOp0
 70
     1
102
RTVSPropertyOp1
 70
     1
102
RTVSPropertyOp2
 70
     1
102
RTVSPropertyOp3
 70
     1
102
RTVSPropertyOp4
 70
     1
102
RTVSPropertyOp5
 70
     1
102
RTVSPropertyOp6
 70
     1
102
RTVSPropertyOp7
 70
     1
102
RTVSPropertyOp8
 70
     1
102
RTVSPropertyOp9
 70
     1
102
RTVSPropertyOp10
 70
     1
102
RTVSPropertyOp11
 70
     1
102
RTVSPropertyOp12
 70
     1
102
RTVSPropertyOp13
 70
     1
102
RTVSPropertyOp14
 70
     1
102
RTVSPropertyOp15
 70
     1
102
RTVSPropertyOp16
 70
     1
102
RTVSPropertyOp17
 70
     1
102
RTVSPropertyOp18
 70
     1
102
RTVSPropertyOp19
 70
     1
102
RTVSPropertyOp20
 70
     1
102
RTVSPropertyOp21
 70
     1
102
RTVSPropertyOp22
 70
     1
102
RTVSPropertyOp23
 70
     1
102
RTVSPropertyOp24
 70
     1
102
RTVSPropertyOp25
 70
     1
102
RTVSPropertyOp26
 70
     1
102
RTVSPropertyOp27
 70
     1
102
RTVSPropertyOp28
 70
     1
102
RTVSPropertyOp29
 70
     1
102
RTVSPropertyOp30
 70
     1
102
RTVSPropertyOp31
 70
     1
102
RTVSPropertyOp32
 70
     1
102
RTVSPropertyOp33
 70
     1
102
RTVSPropertyOp34
 70
     1
102
RTVSPropertyOp35
 70
     1
102
RTVSPropertyOp36
 70
     1
102
RTVSPropertyOp37
 70
     1
102
RTVSPropertyOp38
 70
     1
102
RTVSPropertyOp39
 70
     1
102
RTVSPropertyOp40
 70
     1
102
RTVSPropertyOp41
 70
     1
102
RTVSPropertyOp42
 70
     1
102
RTVSPropertyOp43
 70
     1
102
RTVSPropertyOp44
 70
     1
102
RTVSPropertyOp45
 70
     1
102
RTVSPropertyOp46
 70
     1
102
RTVSPropertyOp47
 70
     1
102
RTVSPropertyOp48
 70
     1
102
RTVSPropertyOp49
 70
     1
102
RTVSPropertyOp50
 70
     1
102
RTVSPropertyOp51
 70
     0
102
RTVSPropertyOp52
 70
     0
102
RTVSPropertyOp53
 70
     1
102
RTVSPropertyOp54
 70
     1
102
RTVSPropertyOp55
 70
     1
102
RTVSPropertyOp56
 70
     1
102
RTVSPropertyOp57
 70
     1
102
RTVSPost2010Prop28
280
     0
102
RTVSPost2010PropOp28
 70
     1
102
RTVSPost2010Prop29
280
     1
102
RTVSPost2010PropOp29
 70
     1
102
RTVSPost2010Prop30
280
     1
102
RTVSPost2010PropOp30
 70
     1
102
RTVSPost2010Prop31
280
     0
102
RTVSPost2010PropOp31
 70
     1
102
RTVSPost2010Prop32
280
     0
102
RTVSPost2010PropOp32
 70
     1
102
RTVSPost2010Prop33
280
     0
102
RTVSPost2010PropOp33
 70
     1
102
RTVSPost2010Prop34
280
     0
102
RTVSPost2010PropOp34
 70
     1
102
RTVSPost2010Prop35
280
     0
102
RTVSPost2010PropOp35
 70
     1
102
RTVSPost2010Prop36
280
     0
102
RTVSPost2010PropOp36
 70
     1
102
RTVSPost2010Prop37
 90
       50
102
RTVSPost2010PropOp37
 70
     1
102
RTVSPost2010Prop38
140
0.0
102
RTVSPost2010PropOp38
 70
     1
102
RTVSPost2010Prop39
140
1.0
102
RTVSPost2010PropOp39
 70
     1
102
RTVSPost2010Prop40
 90
        0
102
RTVSPost2010PropOp40
 70
     1
102
RTVSPost2010Prop41ColorIndex
 90
       18
102
RTVSPost2010Prop41ColorRGB
 90
        0
102
RTVSPost2010PropOp41
 70
     1
102
RTVSPost2010Prop42
 90
       50
102
RTVSPost2010PropOp42
 70
     1
102
RTVSPost2010Prop43
 90
        3
102
RTVSPost2010PropOp43
 70
     1
102
RTVSPost2010Prop44ColorIndex
 90
        5
102
RTVSPost2010Prop44ColorRGB
 90
      255
102
RTVSPost2010PropOp44
 70
     1
102
RTVSPost2010Prop45
280
     0
102
RTVSPost2010PropOp45
 70
     1
102
RTVSPost2010Prop46
 90
       50
102
RTVSPost2010PropOp46
 70
     1
102
RTVSPost2010Prop47
 90
       50
102
RTVSPost2010PropOp47
 70
     1
102
RTVSPost2010Prop48
 90
       50
102
RTVSPost2010PropOp48
 70
     1
102
RTVSPost2010Prop49
280
     0
102
RTVSPost2010PropOp49
 70
     1
102
RTVSPost2010Prop50
 90
       50
102
RTVSPost2010PropOp50
 70
     1
102
RTVSPost2010Prop51ColorIndex
 90
      256
102
RTVSPost2010Prop51ColorRGB
 90
-16777216
102
RTVSPost2010PropOp51
 70
     0
102
RTVSPost2010Prop52
140
1.0
102
RTVSPost2010PropOp52
 70
     0
102
RTVSPost2010Prop53
 90
        2
102
RTVSPost2010PropOp53
 70
     1
102
RTVSPost2010Prop54
  1
strokes_ogs.tif
102
RTVSPost2010PropOp54
 70
     1
102
RTVSPost2010Prop55
280
     0
102
RTVSPost2010PropOp55
 70
     1
102
RTVSPost2010Prop56
140
1.0
102
RTVSPost2010PropOp56
 70
     1
102
RTVSPost2010Prop57
140
1.0
102
RTVSPost2010PropOp57
 70
     1
  0
XRECORD
  5
325
102
{ACAD_REACTORS
330
324
102
}
330
324
100
AcDbXrecord
280
     1
102
RTVSPropertyOp0
 70
     1
102
RTVSPropertyOp1
 70
     1
102
RTVSPropertyOp2
 70
     1
102
RTVSPropertyOp3
 70
     1
102
RTVSPropertyOp4
 70
     1
102
RTVSPropertyOp5
 70
     1
102
RTVSPropertyOp6
 70
     1
102
RTVSPropertyOp7
 70
     1
102
RTVSPropertyOp8
 70
     1
102
RTVSPropertyOp9
 70
     1
102
RTVSPropertyOp10
 70
     1
102
RTVSPropertyOp11
 70
     1
102
RTVSPropertyOp12
 70
     1
102
RTVSPropertyOp13
 70
     1
102
RTVSPropertyOp14
 70
     1
102
RTVSPropertyOp15
 70
     1
102
RTVSPropertyOp16
 70
     1
102
RTVSPropertyOp17
 70
     1
102
RTVSPropertyOp18
 70
     1
102
RTVSPropertyOp19
 70
     1
102
RTVSPropertyOp20
 70
     1
102
RTVSPropertyOp21
 70
     1
102
RTVSPropertyOp22
 70
     1
102
RTVSPropertyOp23
 70
     1
102
RTVSPropertyOp24
 70
     1
102
RTVSPropertyOp25
 70
     1
102
RTVSPropertyOp26
 70
     1
102
RTVSPropertyOp27
 70
     1
102
RTVSPropertyOp28
 70
     1
102
RTVSPropertyOp29
 70
     1
102
RTVSPropertyOp30
 70
     1
102
RTVSPropertyOp31
 70
     1
102
RTVSPropertyOp32
 70
     1
102
RTVSPropertyOp33
 70
     1
102
RTVSPropertyOp34
 70
     1
102
RTVSPropertyOp35
 70
     1
102
RTVSPropertyOp36
 70
     1
102
RTVSPropertyOp37
 70
     1
102
RTVSPropertyOp38
 70
     1
102
RTVSPropertyOp39
 70
     1
102
RTVSPropertyOp40
 70
     1
102
RTVSPropertyOp41
 70
     1
102
RTVSPropertyOp42
 70
     1
102
RTVSPropertyOp43
 70
     1
102
RTVSPropertyOp44
 70
     1
102
RTVSPropertyOp45
 70
     1
102
RTVSPropertyOp46
 70
     1
102
RTVSPropertyOp47
 70
     1
102
RTVSPropertyOp48
 70
     1
102
RTVSPropertyOp49
 70
     1
102
RTVSPropertyOp50
 70
     1
102
RTVSPropertyOp51
 70
     0
102
RTVSPropertyOp52
 70
     0
102
RTVSPropertyOp53
 70
     1
102
RTVSPropertyOp54
 70
     1
102
RTVSPropertyOp55
 70
     1
102
RTVSPropertyOp56
 70
     1
102
RTVSPropertyOp57
 70
     1
102
RTVSPost2010Prop28
280
     0
102
RTVSPost2010PropOp28
 70
     1
102
RTVSPost2010Prop29
280
     1
102
RTVSPost2010PropOp29
 70
     1
102
RTVSPost2010Prop30
280
     1
102
RTVSPost2010PropOp30
 70
     1
102
RTVSPost2010Prop31
280
     0
102
RTVSPost2010PropOp31
 70
     1
102
RTVSPost2010Prop32
280
     0
102
RTVSPost2010PropOp32
 70
     1
102
RTVSPost2010Prop33
280
     0
102
RTVSPost2010PropOp33
 70
     1
102
RTVSPost2010Prop34
280
     0
102
RTVSPost2010PropOp34
 70
     1
102
RTVSPost2010Prop35
280
     0
102
RTVSPost2010PropOp35
 70
     1
102
RTVSPost2010Prop36
280
     0
102
RTVSPost2010PropOp36
 70
     1
102
RTVSPost2010Prop37
 90
       50
102
RTVSPost2010PropOp37
 70
     1
102
RTVSPost2010Prop38
140
0.0
102
RTVSPost2010PropOp38
 70
     1
102
RTVSPost2010Prop39
140
1.0
102
RTVSPost2010PropOp39
 70
     1
102
RTVSPost2010Prop40
 90
        0
102
RTVSPost2010PropOp40
 70
     1
102
RTVSPost2010Prop41ColorIndex
 90
       18
102
RTVSPost2010Prop41ColorRGB
 90
        0
102
RTVSPost2010PropOp41
 70
     1
102
RTVSPost2010Prop42
 90
       50
102
RTVSPost2010PropOp42
 70
     1
102
RTVSPost2010Prop43
 90
        3
102
RTVSPost2010PropOp43
 70
     1
102
RTVSPost2010Prop44ColorIndex
 90
        5
102
RTVSPost2010Prop44ColorRGB
 90
      255
102
RTVSPost2010PropOp44
 70
     1
102
RTVSPost2010Prop45
280
     0
102
RTVSPost2010PropOp45
 70
     1
102
RTVSPost2010Prop46
 90
       50
102
RTVSPost2010PropOp46
 70
     1
102
RTVSPost2010Prop47
 90
       50
102
RTVSPost2010PropOp47
 70
     1
102
RTVSPost2010Prop48
 90
       50
102
RTVSPost2010PropOp48
 70
     1
102
RTVSPost2010Prop49
280
     0
102
RTVSPost2010PropOp49
 70
     1
102
RTVSPost2010Prop50
 90
       50
102
RTVSPost2010PropOp50
 70
     1
102
RTVSPost2010Prop51ColorIndex
 90
      256
102
RTVSPost2010Prop51ColorRGB
 90
-16777216
102
RTVSPost2010PropOp51
 70
     0
102
RTVSPost2010Prop52
140
1.0
102
RTVSPost2010PropOp52
 70
     0
102
RTVSPost2010Prop53
 90
        2
102
RTVSPost2010PropOp53
 70
     1
102
RTVSPost2010Prop54
  1
strokes_ogs.tif
102
RTVSPost2010PropOp54
 70
     1
102
RTVSPost2010Prop55
280
     0
102
RTVSPost2010PropOp55
 70
     1
102
RTVSPost2010Prop56
140
1.0
102
RTVSPost2010PropOp56
 70
     1
102
RTVSPost2010Prop57
140
1.0
102
RTVSPost2010PropOp57
 70
     1
  0
XRECORD
  5
32D
102
{ACAD_REACTORS
330
32C
102
}
330
32C
100
AcDbXrecord
280
     1
102
RTVSPropertyOp0
 70
     1
102
RTVSPropertyOp1
 70
     1
102
RTVSPropertyOp2
 70
     1
102
RTVSPropertyOp3
 70
     1
102
RTVSPropertyOp4
 70
     1
102
RTVSPropertyOp5
 70
     1
102
RTVSPropertyOp6
 70
     1
102
RTVSPropertyOp7
 70
     1
102
RTVSPropertyOp8
 70
     1
102
RTVSPropertyOp9
 70
     1
102
RTVSPropertyOp10
 70
     1
102
RTVSPropertyOp11
 70
     1
102
RTVSPropertyOp12
 70
     1
102
RTVSPropertyOp13
 70
     1
102
RTVSPropertyOp14
 70
     1
102
RTVSPropertyOp15
 70
     1
102
RTVSPropertyOp16
 70
     1
102
RTVSPropertyOp17
 70
     1
102
RTVSPropertyOp18
 70
     1
102
RTVSPropertyOp19
 70
     1
102
RTVSPropertyOp20
 70
     1
102
RTVSPropertyOp21
 70
     1
102
RTVSPropertyOp22
 70
     1
102
RTVSPropertyOp23
 70
     1
102
RTVSPropertyOp24
 70
     1
102
RTVSPropertyOp25
 70
     1
102
RTVSPropertyOp26
 70
     1
102
RTVSPropertyOp27
 70
     1
102
RTVSPropertyOp28
 70
     1
102
RTVSPropertyOp29
 70
     1
102
RTVSPropertyOp30
 70
     1
102
RTVSPropertyOp31
 70
     1
102
RTVSPropertyOp32
 70
     1
102
RTVSPropertyOp33
 70
     1
102
RTVSPropertyOp34
 70
     1
102
RTVSPropertyOp35
 70
     1
102
RTVSPropertyOp36
 70
     1
102
RTVSPropertyOp37
 70
     1
102
RTVSPropertyOp38
 70
     1
102
RTVSPropertyOp39
 70
     1
102
RTVSPropertyOp40
 70
     1
102
RTVSPropertyOp41
 70
     1
102
RTVSPropertyOp42
 70
     1
102
RTVSPropertyOp43
 70
     1
102
RTVSPropertyOp44
 70
     1
102
RTVSPropertyOp45
 70
     1
102
RTVSPropertyOp46
 70
     1
102
RTVSPropertyOp47
 70
     1
102
RTVSPropertyOp48
 70
     1
102
RTVSPropertyOp49
 70
     1
102
RTVSPropertyOp50
 70
     1
102
RTVSPropertyOp51
 70
     0
102
RTVSPropertyOp52
 70
     0
102
RTVSPropertyOp53
 70
     1
102
RTVSPropertyOp54
 70
     1
102
RTVSPropertyOp55
 70
     1
102
RTVSPropertyOp56
 70
     1
102
RTVSPropertyOp57
 70
     1
102
RTVSPost2010Prop28
280
     0
102
RTVSPost2010PropOp28
 70
     1
102
RTVSPost2010Prop29
280
     1
102
RTVSPost2010PropOp29
 70
     1
102
RTVSPost2010Prop30
280
     1
102
RTVSPost2010PropOp30
 70
     1
102
RTVSPost2010Prop31
280
     0
102
RTVSPost2010PropOp31
 70
     1
102
RTVSPost2010Prop32
280
     0
102
RTVSPost2010PropOp32
 70
     1
102
RTVSPost2010Prop33
280
     0
102
RTVSPost2010PropOp33
 70
     1
102
RTVSPost2010Prop34
280
     0
102
RTVSPost2010PropOp34
 70
     1
102
RTVSPost2010Prop35
280
     0
102
RTVSPost2010PropOp35
 70
     1
102
RTVSPost2010Prop36
280
     0
102
RTVSPost2010PropOp36
 70
     1
102
RTVSPost2010Prop37
 90
       50
102
RTVSPost2010PropOp37
 70
     1
102
RTVSPost2010Prop38
140
0.0
102
RTVSPost2010PropOp38
 70
     1
102
RTVSPost2010Prop39
140
1.0
102
RTVSPost2010PropOp39
 70
     1
102
RTVSPost2010Prop40
 90
        0
102
RTVSPost2010PropOp40
 70
     1
102
RTVSPost2010Prop41ColorIndex
 90
       18
102
RTVSPost2010Prop41ColorRGB
 90
        0
102
RTVSPost2010PropOp41
 70
     1
102
RTVSPost2010Prop42
 90
       50
102
RTVSPost2010PropOp42
 70
     1
102
RTVSPost2010Prop43
 90
        3
102
RTVSPost2010PropOp43
 70
     1
102
RTVSPost2010Prop44ColorIndex
 90
        5
102
RTVSPost2010Prop44ColorRGB
 90
      255
102
RTVSPost2010PropOp44
 70
     1
102
RTVSPost2010Prop45
280
     0
102
RTVSPost2010PropOp45
 70
     1
102
RTVSPost2010Prop46
 90
       50
102
RTVSPost2010PropOp46
 70
     1
102
RTVSPost2010Prop47
 90
       50
102
RTVSPost2010PropOp47
 70
     1
102
RTVSPost2010Prop48
 90
       50
102
RTVSPost2010PropOp48
 70
     1
102
RTVSPost2010Prop49
280
     0
102
RTVSPost2010PropOp49
 70
     1
102
RTVSPost2010Prop50
 90
       50
102
RTVSPost2010PropOp50
 70
     1
102
RTVSPost2010Prop51ColorIndex
 90
      256
102
RTVSPost2010Prop51ColorRGB
 90
-16777216
102
RTVSPost2010PropOp51
 70
     0
102
RTVSPost2010Prop52
140
1.0
102
RTVSPost2010PropOp52
 70
     0
102
RTVSPost2010Prop53
 90
        2
102
RTVSPost2010PropOp53
 70
     1
102
RTVSPost2010Prop54
  1
strokes_ogs.tif
102
RTVSPost2010PropOp54
 70
     1
102
RTVSPost2010Prop55
280
     0
102
RTVSPost2010PropOp55
 70
     1
102
RTVSPost2010Prop56
140
1.0
102
RTVSPost2010PropOp56
 70
     1
102
RTVSPost2010Prop57
140
1.0
102
RTVSPost2010PropOp57
 70
     1
  0
XRECORD
  5
321
102
{ACAD_REACTORS
330
320
102
}
330
320
100
AcDbXrecord
280
     1
102
RTVSPropertyOp0
 70
     1
102
RTVSPropertyOp1
 70
     1
102
RTVSPropertyOp2
 70
     1
102
RTVSPropertyOp3
 70
     1
102
RTVSPropertyOp4
 70
     1
102
RTVSPropertyOp5
 70
     1
102
RTVSPropertyOp6
 70
     1
102
RTVSPropertyOp7
 70
     1
102
RTVSPropertyOp8
 70
     1
102
RTVSPropertyOp9
 70
     1
102
RTVSPropertyOp10
 70
     1
102
RTVSPropertyOp11
 70
     1
102
RTVSPropertyOp12
 70
     1
102
RTVSPropertyOp13
 70
     1
102
RTVSPropertyOp14
 70
     1
102
RTVSPropertyOp15
 70
     1
102
RTVSPropertyOp16
 70
     1
102
RTVSPropertyOp17
 70
     1
102
RTVSPropertyOp18
 70
     1
102
RTVSPropertyOp19
 70
     1
102
RTVSPropertyOp20
 70
     1
102
RTVSPropertyOp21
 70
     1
102
RTVSPropertyOp22
 70
     1
102
RTVSPropertyOp23
 70
     1
102
RTVSPropertyOp24
 70
     1
102
RTVSPropertyOp25
 70
     1
102
RTVSPropertyOp26
 70
     1
102
RTVSPropertyOp27
 70
     1
102
RTVSPropertyOp28
 70
     1
102
RTVSPropertyOp29
 70
     1
102
RTVSPropertyOp30
 70
     1
102
RTVSPropertyOp31
 70
     1
102
RTVSPropertyOp32
 70
     1
102
RTVSPropertyOp33
 70
     1
102
RTVSPropertyOp34
 70
     1
102
RTVSPropertyOp35
 70
     1
102
RTVSPropertyOp36
 70
     1
102
RTVSPropertyOp37
 70
     1
102
RTVSPropertyOp38
 70
     1
102
RTVSPropertyOp39
 70
     1
102
RTVSPropertyOp40
 70
     1
102
RTVSPropertyOp41
 70
     1
102
RTVSPropertyOp42
 70
     1
102
RTVSPropertyOp43
 70
     1
102
RTVSPropertyOp44
 70
     1
102
RTVSPropertyOp45
 70
     1
102
RTVSPropertyOp46
 70
     1
102
RTVSPropertyOp47
 70
     1
102
RTVSPropertyOp48
 70
     1
102
RTVSPropertyOp49
 70
     1
102
RTVSPropertyOp50
 70
     1
102
RTVSPropertyOp51
 70
     0
102
RTVSPropertyOp52
 70
     0
102
RTVSPropertyOp53
 70
     1
102
RTVSPropertyOp54
 70
     1
102
RTVSPropertyOp55
 70
     1
102
RTVSPropertyOp56
 70
     1
102
RTVSPropertyOp57
 70
     1
102
RTVSPost2010Prop28
280
     0
102
RTVSPost2010PropOp28
 70
     1
102
RTVSPost2010Prop29
280
     1
102
RTVSPost2010PropOp29
 70
     1
102
RTVSPost2010Prop30
280
     1
102
RTVSPost2010PropOp30
 70
     1
102
RTVSPost2010Prop31
280
     0
102
RTVSPost2010PropOp31
 70
     1
102
RTVSPost2010Prop32
280
     0
102
RTVSPost2010PropOp32
 70
     1
102
RTVSPost2010Prop33
280
     0
102
RTVSPost2010PropOp33
 70
     1
102
RTVSPost2010Prop34
280
     0
102
RTVSPost2010PropOp34
 70
     1
102
RTVSPost2010Prop35
280
     0
102
RTVSPost2010PropOp35
 70
     1
102
RTVSPost2010Prop36
280
     0
102
RTVSPost2010PropOp36
 70
     1
102
RTVSPost2010Prop37
 90
       50
102
RTVSPost2010PropOp37
 70
     1
102
RTVSPost2010Prop38
140
0.0
102
RTVSPost2010PropOp38
 70
     1
102
RTVSPost2010Prop39
140
1.0
102
RTVSPost2010PropOp39
 70
     1
102
RTVSPost2010Prop40
 90
        0
102
RTVSPost2010PropOp40
 70
     1
102
RTVSPost2010Prop41ColorIndex
 90
       18
102
RTVSPost2010Prop41ColorRGB
 90
        0
102
RTVSPost2010PropOp41
 70
     1
102
RTVSPost2010Prop42
 90
       50
102
RTVSPost2010PropOp42
 70
     1
102
RTVSPost2010Prop43
 90
        3
102
RTVSPost2010PropOp43
 70
     1
102
RTVSPost2010Prop44ColorIndex
 90
        5
102
RTVSPost2010Prop44ColorRGB
 90
      255
102
RTVSPost2010PropOp44
 70
     1
102
RTVSPost2010Prop45
280
     0
102
RTVSPost2010PropOp45
 70
     1
102
RTVSPost2010Prop46
 90
       50
102
RTVSPost2010PropOp46
 70
     1
102
RTVSPost2010Prop47
 90
       50
102
RTVSPost2010PropOp47
 70
     1
102
RTVSPost2010Prop48
 90
       50
102
RTVSPost2010PropOp48
 70
     1
102
RTVSPost2010Prop49
280
     0
102
RTVSPost2010PropOp49
 70
     1
102
RTVSPost2010Prop50
 90
       50
102
RTVSPost2010PropOp50
 70
     1
102
RTVSPost2010Prop51ColorIndex
 90
      256
102
RTVSPost2010Prop51ColorRGB
 90
-16777216
102
RTVSPost2010PropOp51
 70
     0
102
RTVSPost2010Prop52
140
1.0
102
RTVSPost2010PropOp52
 70
     0
102
RTVSPost2010Prop53
 90
        2
102
RTVSPost2010PropOp53
 70
     1
102
RTVSPost2010Prop54
  1
strokes_ogs.tif
102
RTVSPost2010PropOp54
 70
     1
102
RTVSPost2010Prop55
280
     0
102
RTVSPost2010PropOp55
 70
     1
102
RTVSPost2010Prop56
140
1.0
102
RTVSPost2010PropOp56
 70
     1
102
RTVSPost2010Prop57
140
1.0
102
RTVSPost2010PropOp57
 70
     1
  0
XRECORD
  5
323
102
{ACAD_REACTORS
330
322
102
}
330
322
100
AcDbXrecord
280
     1
102
RTVSPropertyOp0
 70
     1
102
RTVSPropertyOp1
 70
     1
102
RTVSPropertyOp2
 70
     1
102
RTVSPropertyOp3
 70
     1
102
RTVSPropertyOp4
 70
     1
102
RTVSPropertyOp5
 70
     1
102
RTVSPropertyOp6
 70
     1
102
RTVSPropertyOp7
 70
     1
102
RTVSPropertyOp8
 70
     1
102
RTVSPropertyOp9
 70
     1
102
RTVSPropertyOp10
 70
     1
102
RTVSPropertyOp11
 70
     1
102
RTVSPropertyOp12
 70
     1
102
RTVSPropertyOp13
 70
     1
102
RTVSPropertyOp14
 70
     1
102
RTVSPropertyOp15
 70
     1
102
RTVSPropertyOp16
 70
     1
102
RTVSPropertyOp17
 70
     1
102
RTVSPropertyOp18
 70
     1
102
RTVSPropertyOp19
 70
     1
102
RTVSPropertyOp20
 70
     1
102
RTVSPropertyOp21
 70
     1
102
RTVSPropertyOp22
 70
     1
102
RTVSPropertyOp23
 70
     1
102
RTVSPropertyOp24
 70
     1
102
RTVSPropertyOp25
 70
     1
102
RTVSPropertyOp26
 70
     1
102
RTVSPropertyOp27
 70
     1
102
RTVSPropertyOp28
 70
     1
102
RTVSPropertyOp29
 70
     1
102
RTVSPropertyOp30
 70
     1
102
RTVSPropertyOp31
 70
     1
102
RTVSPropertyOp32
 70
     1
102
RTVSPropertyOp33
 70
     1
102
RTVSPropertyOp34
 70
     1
102
RTVSPropertyOp35
 70
     1
102
RTVSPropertyOp36
 70
     1
102
RTVSPropertyOp37
 70
     1
102
RTVSPropertyOp38
 70
     1
102
RTVSPropertyOp39
 70
     1
102
RTVSPropertyOp40
 70
     1
102
RTVSPropertyOp41
 70
     1
102
RTVSPropertyOp42
 70
     1
102
RTVSPropertyOp43
 70
     1
102
RTVSPropertyOp44
 70
     1
102
RTVSPropertyOp45
 70
     1
102
RTVSPropertyOp46
 70
     1
102
RTVSPropertyOp47
 70
     1
102
RTVSPropertyOp48
 70
     1
102
RTVSPropertyOp49
 70
     1
102
RTVSPropertyOp50
 70
     1
102
RTVSPropertyOp51
 70
     0
102
RTVSPropertyOp52
 70
     0
102
RTVSPropertyOp53
 70
     1
102
RTVSPropertyOp54
 70
     1
102
RTVSPropertyOp55
 70
     1
102
RTVSPropertyOp56
 70
     1
102
RTVSPropertyOp57
 70
     1
102
RTVSPost2010Prop28
280
     0
102
RTVSPost2010PropOp28
 70
     1
102
RTVSPost2010Prop29
280
     1
102
RTVSPost2010PropOp29
 70
     1
102
RTVSPost2010Prop30
280
     1
102
RTVSPost2010PropOp30
 70
     1
102
RTVSPost2010Prop31
280
     0
102
RTVSPost2010PropOp31
 70
     1
102
RTVSPost2010Prop32
280
     0
102
RTVSPost2010PropOp32
 70
     1
102
RTVSPost2010Prop33
280
     0
102
RTVSPost2010PropOp33
 70
     1
102
RTVSPost2010Prop34
280
     0
102
RTVSPost2010PropOp34
 70
     1
102
RTVSPost2010Prop35
280
     0
102
RTVSPost2010PropOp35
 70
     1
102
RTVSPost2010Prop36
280
     0
102
RTVSPost2010PropOp36
 70
     1
102
RTVSPost2010Prop37
 90
       50
102
RTVSPost2010PropOp37
 70
     1
102
RTVSPost2010Prop38
140
0.0
102
RTVSPost2010PropOp38
 70
     1
102
RTVSPost2010Prop39
140
1.0
102
RTVSPost2010PropOp39
 70
     1
102
RTVSPost2010Prop40
 90
        0
102
RTVSPost2010PropOp40
 70
     1
102
RTVSPost2010Prop41ColorIndex
 90
       18
102
RTVSPost2010Prop41ColorRGB
 90
        0
102
RTVSPost2010PropOp41
 70
     1
102
RTVSPost2010Prop42
 90
       50
102
RTVSPost2010PropOp42
 70
     1
102
RTVSPost2010Prop43
 90
        3
102
RTVSPost2010PropOp43
 70
     1
102
RTVSPost2010Prop44ColorIndex
 90
        5
102
RTVSPost2010Prop44ColorRGB
 90
      255
102
RTVSPost2010PropOp44
 70
     1
102
RTVSPost2010Prop45
280
     0
102
RTVSPost2010PropOp45
 70
     1
102
RTVSPost2010Prop46
 90
       50
102
RTVSPost2010PropOp46
 70
     1
102
RTVSPost2010Prop47
 90
       50
102
RTVSPost2010PropOp47
 70
     1
102
RTVSPost2010Prop48
 90
       50
102
RTVSPost2010PropOp48
 70
     1
102
RTVSPost2010Prop49
280
     0
102
RTVSPost2010PropOp49
 70
     1
102
RTVSPost2010Prop50
 90
       50
102
RTVSPost2010PropOp50
 70
     1
102
RTVSPost2010Prop51ColorIndex
 90
      256
102
RTVSPost2010Prop51ColorRGB
 90
-16777216
102
RTVSPost2010PropOp51
 70
     0
102
RTVSPost2010Prop52
140
1.0
102
RTVSPost2010PropOp52
 70
     0
102
RTVSPost2010Prop53
 90
        2
102
RTVSPost2010PropOp53
 70
     1
102
RTVSPost2010Prop54
  1
strokes_ogs.tif
102
RTVSPost2010PropOp54
 70
     1
102
RTVSPost2010Prop55
280
     0
102
RTVSPost2010PropOp55
 70
     1
102
RTVSPost2010Prop56
140
1.0
102
RTVSPost2010PropOp56
 70
     1
102
RTVSPost2010Prop57
140
1.0
102
RTVSPost2010PropOp57
 70
     1
  0
XRECORD
  5
333
102
{ACAD_REACTORS
330
332
102
}
330
332
100
AcDbXrecord
280
     1
102
RTVSPropertyOp0
 70
     0
102
RTVSPropertyOp1
 70
     0
102
RTVSPropertyOp2
 70
     0
102
RTVSPropertyOp3
 70
     0
102
RTVSPropertyOp4
 70
     0
102
RTVSPropertyOp5
 70
     0
102
RTVSPropertyOp6
 70
     0
102
RTVSPropertyOp7
 70
     0
102
RTVSPropertyOp8
 70
     0
102
RTVSPropertyOp9
 70
     0
102
RTVSPropertyOp10
 70
     0
102
RTVSPropertyOp11
 70
     0
102
RTVSPropertyOp12
 70
     0
102
RTVSPropertyOp13
 70
     0
102
RTVSPropertyOp14
 70
     2
102
RTVSPropertyOp15
 70
     0
102
RTVSPropertyOp16
 70
     0
102
RTVSPropertyOp17
 70
     0
102
RTVSPropertyOp18
 70
     0
102
RTVSPropertyOp19
 70
     0
102
RTVSPropertyOp20
 70
     0
102
RTVSPropertyOp21
 70
     0
102
RTVSPropertyOp22
 70
     0
102
RTVSPropertyOp23
 70
     0
102
RTVSPropertyOp24
 70
     0
102
RTVSPropertyOp25
 70
     0
102
RTVSPropertyOp26
 70
     0
102
RTVSPropertyOp27
 70
     0
102
RTVSPropertyOp28
 70
     0
102
RTVSPropertyOp29
 70
     0
102
RTVSPropertyOp30
 70
     0
102
RTVSPropertyOp31
 70
     0
102
RTVSPropertyOp32
 70
     0
102
RTVSPropertyOp33
 70
     0
102
RTVSPropertyOp34
 70
     0
102
RTVSPropertyOp35
 70
     0
102
RTVSPropertyOp36
 70
     0
102
RTVSPropertyOp37
 70
     0
102
RTVSPropertyOp38
 70
     0
102
RTVSPropertyOp39
 70
     0
102
RTVSPropertyOp40
 70
     0
102
RTVSPropertyOp41
 70
     0
102
RTVSPropertyOp42
 70
     0
102
RTVSPropertyOp43
 70
     0
102
RTVSPropertyOp44
 70
     0
102
RTVSPropertyOp45
 70
     0
102
RTVSPropertyOp46
 70
     0
102
RTVSPropertyOp47
 70
     0
102
RTVSPropertyOp48
 70
     0
102
RTVSPropertyOp49
 70
     0
102
RTVSPropertyOp50
 70
     0
102
RTVSPropertyOp51
 70
     0
102
RTVSPropertyOp52
 70
     0
102
RTVSPropertyOp53
 70
     0
102
RTVSPropertyOp54
 70
     0
102
RTVSPropertyOp55
 70
     0
102
RTVSPropertyOp56
 70
     0
102
RTVSPropertyOp57
 70
     0
102
RTVSPost2010Prop28
280
     0
102
RTVSPost2010PropOp28
 70
     0
102
RTVSPost2010Prop29
280
     1
102
RTVSPost2010PropOp29
 70
     0
102
RTVSPost2010Prop30
280
     1
102
RTVSPost2010PropOp30
 70
     0
102
RTVSPost2010Prop31
280
     0
102
RTVSPost2010PropOp31
 70
     0
102
RTVSPost2010Prop32
280
     0
102
RTVSPost2010PropOp32
 70
     0
102
RTVSPost2010Prop33
280
     0
102
RTVSPost2010PropOp33
 70
     0
102
RTVSPost2010Prop34
280
     0
102
RTVSPost2010PropOp34
 70
     0
102
RTVSPost2010Prop35
280
     0
102
RTVSPost2010PropOp35
 70
     0
102
RTVSPost2010Prop36
280
     0
102
RTVSPost2010PropOp36
 70
     0
102
RTVSPost2010Prop37
 90
       50
102
RTVSPost2010PropOp37
 70
     0
102
RTVSPost2010Prop38
140
0.0
102
RTVSPost2010PropOp38
 70
     0
102
RTVSPost2010Prop39
140
1.0
102
RTVSPost2010PropOp39
 70
     0
102
RTVSPost2010Prop40
 90
        0
102
RTVSPost2010PropOp40
 70
     0
102
RTVSPost2010Prop41ColorIndex
 90
       18
102
RTVSPost2010Prop41ColorRGB
 90
        0
102
RTVSPost2010PropOp41
 70
     0
102
RTVSPost2010Prop42
 90
       50
102
RTVSPost2010PropOp42
 70
     0
102
RTVSPost2010Prop43
 90
        3
102
RTVSPost2010PropOp43
 70
     0
102
RTVSPost2010Prop44ColorIndex
 90
        5
102
RTVSPost2010Prop44ColorRGB
 90
      255
102
RTVSPost2010PropOp44
 70
     0
102
RTVSPost2010Prop45
280
     0
102
RTVSPost2010PropOp45
 70
     0
102
RTVSPost2010Prop46
 90
       50
102
RTVSPost2010PropOp46
 70
     0
102
RTVSPost2010Prop47
 90
       50
102
RTVSPost2010PropOp47
 70
     0
102
RTVSPost2010Prop48
 90
       50
102
RTVSPost2010PropOp48
 70
     0
102
RTVSPost2010Prop49
280
     0
102
RTVSPost2010PropOp49
 70
     0
102
RTVSPost2010Prop50
 90
       50
102
RTVSPost2010PropOp50
 70
     0
102
RTVSPost2010Prop51ColorIndex
 90
      256
102
RTVSPost2010Prop51ColorRGB
 90
-16777216
102
RTVSPost2010PropOp51
 70
     0
102
RTVSPost2010Prop52
140
1.0
102
RTVSPost2010PropOp52
 70
     0
102
RTVSPost2010Prop53
 90
        2
102
RTVSPost2010PropOp53
 70
     0
102
RTVSPost2010Prop54
  1
strokes_ogs.tif
102
RTVSPost2010PropOp54
 70
     0
102
RTVSPost2010Prop55
280
     0
102
RTVSPost2010PropOp55
 70
     0
102
RTVSPost2010Prop56
140
1.0
102
RTVSPost2010PropOp56
 70
     0
102
RTVSPost2010Prop57
140
1.0
102
RTVSPost2010PropOp57
 70
     0
  0
XRECORD
  5
32B
102
{ACAD_REACTORS
330
32A
102
}
330
32A
100
AcDbXrecord
280
     1
102
RTVSPropertyOp0
 70
     1
102
RTVSPropertyOp1
 70
     1
102
RTVSPropertyOp2
 70
     1
102
RTVSPropertyOp3
 70
     1
102
RTVSPropertyOp4
 70
     1
102
RTVSPropertyOp5
 70
     1
102
RTVSPropertyOp6
 70
     1
102
RTVSPropertyOp7
 70
     1
102
RTVSPropertyOp8
 70
     1
102
RTVSPropertyOp9
 70
     1
102
RTVSPropertyOp10
 70
     1
102
RTVSPropertyOp11
 70
     1
102
RTVSPropertyOp12
 70
     1
102
RTVSPropertyOp13
 70
     1
102
RTVSPropertyOp14
 70
     1
102
RTVSPropertyOp15
 70
     1
102
RTVSPropertyOp16
 70
     1
102
RTVSPropertyOp17
 70
     1
102
RTVSPropertyOp18
 70
     1
102
RTVSPropertyOp19
 70
     1
102
RTVSPropertyOp20
 70
     1
102
RTVSPropertyOp21
 70
     1
102
RTVSPropertyOp22
 70
     1
102
RTVSPropertyOp23
 70
     1
102
RTVSPropertyOp24
 70
     1
102
RTVSPropertyOp25
 70
     1
102
RTVSPropertyOp26
 70
     1
102
RTVSPropertyOp27
 70
     1
102
RTVSPropertyOp28
 70
     1
102
RTVSPropertyOp29
 70
     1
102
RTVSPropertyOp30
 70
     1
102
RTVSPropertyOp31
 70
     1
102
RTVSPropertyOp32
 70
     1
102
RTVSPropertyOp33
 70
     1
102
RTVSPropertyOp34
 70
     1
102
RTVSPropertyOp35
 70
     1
102
RTVSPropertyOp36
 70
     1
102
RTVSPropertyOp37
 70
     1
102
RTVSPropertyOp38
 70
     1
102
RTVSPropertyOp39
 70
     1
102
RTVSPropertyOp40
 70
     1
102
RTVSPropertyOp41
 70
     1
102
RTVSPropertyOp42
 70
     1
102
RTVSPropertyOp43
 70
     1
102
RTVSPropertyOp44
 70
     1
102
RTVSPropertyOp45
 70
     1
102
RTVSPropertyOp46
 70
     1
102
RTVSPropertyOp47
 70
     1
102
RTVSPropertyOp48
 70
     1
102
RTVSPropertyOp49
 70
     1
102
RTVSPropertyOp50
 70
     1
102
RTVSPropertyOp51
 70
     0
102
RTVSPropertyOp52
 70
     0
102
RTVSPropertyOp53
 70
     1
102
RTVSPropertyOp54
 70
     1
102
RTVSPropertyOp55
 70
     1
102
RTVSPropertyOp56
 70
     1
102
RTVSPropertyOp57
 70
     1
102
RTVSPost2010Prop28
280
     0
102
RTVSPost2010PropOp28
 70
     1
102
RTVSPost2010Prop29
280
     1
102
RTVSPost2010PropOp29
 70
     1
102
RTVSPost2010Prop30
280
     1
102
RTVSPost2010PropOp30
 70
     1
102
RTVSPost2010Prop31
280
     0
102
RTVSPost2010PropOp31
 70
     1
102
RTVSPost2010Prop32
280
     0
102
RTVSPost2010PropOp32
 70
     1
102
RTVSPost2010Prop33
280
     0
102
RTVSPost2010PropOp33
 70
     1
102
RTVSPost2010Prop34
280
     0
102
RTVSPost2010PropOp34
 70
     1
102
RTVSPost2010Prop35
280
     0
102
RTVSPost2010PropOp35
 70
     1
102
RTVSPost2010Prop36
280
     0
102
RTVSPost2010PropOp36
 70
     1
102
RTVSPost2010Prop37
 90
       50
102
RTVSPost2010PropOp37
 70
     1
102
RTVSPost2010Prop38
140
0.0
102
RTVSPost2010PropOp38
 70
     1
102
RTVSPost2010Prop39
140
1.0
102
RTVSPost2010PropOp39
 70
     1
102
RTVSPost2010Prop40
 90
        0
102
RTVSPost2010PropOp40
 70
     1
102
RTVSPost2010Prop41ColorIndex
 90
       18
102
RTVSPost2010Prop41ColorRGB
 90
        0
102
RTVSPost2010PropOp41
 70
     1
102
RTVSPost2010Prop42
 90
       50
102
RTVSPost2010PropOp42
 70
     1
102
RTVSPost2010Prop43
 90
        3
102
RTVSPost2010PropOp43
 70
     1
102
RTVSPost2010Prop44ColorIndex
 90
        5
102
RTVSPost2010Prop44ColorRGB
 90
      255
102
RTVSPost2010PropOp44
 70
     1
102
RTVSPost2010Prop45
280
     0
102
RTVSPost2010PropOp45
 70
     1
102
RTVSPost2010Prop46
 90
       50
102
RTVSPost2010PropOp46
 70
     1
102
RTVSPost2010Prop47
 90
       50
102
RTVSPost2010PropOp47
 70
     1
102
RTVSPost2010Prop48
 90
       50
102
RTVSPost2010PropOp48
 70
     1
102
RTVSPost2010Prop49
280
     0
102
RTVSPost2010PropOp49
 70
     1
102
RTVSPost2010Prop50
 90
       50
102
RTVSPost2010PropOp50
 70
     1
102
RTVSPost2010Prop51ColorIndex
 90
      256
102
RTVSPost2010Prop51ColorRGB
 90
-16777216
102
RTVSPost2010PropOp51
 70
     0
102
RTVSPost2010Prop52
140
1.0
102
RTVSPost2010PropOp52
 70
     0
102
RTVSPost2010Prop53
 90
        2
102
RTVSPost2010PropOp53
 70
     1
102
RTVSPost2010Prop54
  1
strokes_ogs.tif
102
RTVSPost2010PropOp54
 70
     1
102
RTVSPost2010Prop55
280
     0
102
RTVSPost2010PropOp55
 70
     1
102
RTVSPost2010Prop56
140
1.0
102
RTVSPost2010PropOp56
 70
     1
102
RTVSPost2010Prop57
140
1.0
102
RTVSPost2010PropOp57
 70
     1
  0
XRECORD
  5
30F
102
{ACAD_REACTORS
330
30E
102
}
330
30E
100
AcDbXrecord
280
     1
102
RTVSPropertyOp0
 70
     1
102
RTVSPropertyOp1
 70
     1
102
RTVSPropertyOp2
 70
     1
102
RTVSPropertyOp3
 70
     1
102
RTVSPropertyOp4
 70
     1
102
RTVSPropertyOp5
 70
     1
102
RTVSPropertyOp6
 70
     1
102
RTVSPropertyOp7
 70
     1
102
RTVSPropertyOp8
 70
     1
102
RTVSPropertyOp9
 70
     1
102
RTVSPropertyOp10
 70
     1
102
RTVSPropertyOp11
 70
     1
102
RTVSPropertyOp12
 70
     1
102
RTVSPropertyOp13
 70
     1
102
RTVSPropertyOp14
 70
     1
102
RTVSPropertyOp15
 70
     1
102
RTVSPropertyOp16
 70
     1
102
RTVSPropertyOp17
 70
     1
102
RTVSPropertyOp18
 70
     1
102
RTVSPropertyOp19
 70
     1
102
RTVSPropertyOp20
 70
     1
102
RTVSPropertyOp21
 70
     1
102
RTVSPropertyOp22
 70
     1
102
RTVSPropertyOp23
 70
     1
102
RTVSPropertyOp24
 70
     1
102
RTVSPropertyOp25
 70
     1
102
RTVSPropertyOp26
 70
     1
102
RTVSPropertyOp27
 70
     1
102
RTVSPropertyOp28
 70
     1
102
RTVSPropertyOp29
 70
     1
102
RTVSPropertyOp30
 70
     1
102
RTVSPropertyOp31
 70
     1
102
RTVSPropertyOp32
 70
     1
102
RTVSPropertyOp33
 70
     1
102
RTVSPropertyOp34
 70
     1
102
RTVSPropertyOp35
 70
     1
102
RTVSPropertyOp36
 70
     1
102
RTVSPropertyOp37
 70
     1
102
RTVSPropertyOp38
 70
     1
102
RTVSPropertyOp39
 70
     1
102
RTVSPropertyOp40
 70
     1
102
RTVSPropertyOp41
 70
     1
102
RTVSPropertyOp42
 70
     1
102
RTVSPropertyOp43
 70
     1
102
RTVSPropertyOp44
 70
     1
102
RTVSPropertyOp45
 70
     1
102
RTVSPropertyOp46
 70
     1
102
RTVSPropertyOp47
 70
     1
102
RTVSPropertyOp48
 70
     1
102
RTVSPropertyOp49
 70
     1
102
RTVSPropertyOp50
 70
     1
102
RTVSPropertyOp51
 70
     0
102
RTVSPropertyOp52
 70
     0
102
RTVSPropertyOp53
 70
     1
102
RTVSPropertyOp54
 70
     1
102
RTVSPropertyOp55
 70
     1
102
RTVSPropertyOp56
 70
     1
102
RTVSPropertyOp57
 70
     1
102
RTVSPost2010Prop28
280
     0
102
RTVSPost2010PropOp28
 70
     1
102
RTVSPost2010Prop29
280
     1
102
RTVSPost2010PropOp29
 70
     1
102
RTVSPost2010Prop30
280
     1
102
RTVSPost2010PropOp30
 70
     1
102
RTVSPost2010Prop31
280
     0
102
RTVSPost2010PropOp31
 70
     1
102
RTVSPost2010Prop32
280
     0
102
RTVSPost2010PropOp32
 70
     1
102
RTVSPost2010Prop33
280
     0
102
RTVSPost2010PropOp33
 70
     1
102
RTVSPost2010Prop34
280
     0
102
RTVSPost2010PropOp34
 70
     1
102
RTVSPost2010Prop35
280
     0
102
RTVSPost2010PropOp35
 70
     1
102
RTVSPost2010Prop36
280
     0
102
RTVSPost2010PropOp36
 70
     1
102
RTVSPost2010Prop37
 90
       50
102
RTVSPost2010PropOp37
 70
     1
102
RTVSPost2010Prop38
140
0.0
102
RTVSPost2010PropOp38
 70
     1
102
RTVSPost2010Prop39
140
1.0
102
RTVSPost2010PropOp39
 70
     1
102
RTVSPost2010Prop40
 90
        0
102
RTVSPost2010PropOp40
 70
     1
102
RTVSPost2010Prop41ColorIndex
 90
       18
102
RTVSPost2010Prop41ColorRGB
 90
        0
102
RTVSPost2010PropOp41
 70
     1
102
RTVSPost2010Prop42
 90
       50
102
RTVSPost2010PropOp42
 70
     1
102
RTVSPost2010Prop43
 90
        3
102
RTVSPost2010PropOp43
 70
     1
102
RTVSPost2010Prop44ColorIndex
 90
        5
102
RTVSPost2010Prop44ColorRGB
 90
      255
102
RTVSPost2010PropOp44
 70
     1
102
RTVSPost2010Prop45
280
     0
102
RTVSPost2010PropOp45
 70
     1
102
RTVSPost2010Prop46
 90
       50
102
RTVSPost2010PropOp46
 70
     1
102
RTVSPost2010Prop47
 90
       50
102
RTVSPost2010PropOp47
 70
     1
102
RTVSPost2010Prop48
 90
       50
102
RTVSPost2010PropOp48
 70
     1
102
RTVSPost2010Prop49
280
     0
102
RTVSPost2010PropOp49
 70
     1
102
RTVSPost2010Prop50
 90
       50
102
RTVSPost2010PropOp50
 70
     1
102
RTVSPost2010Prop51ColorIndex
 90
      256
102
RTVSPost2010Prop51ColorRGB
 90
-16777216
102
RTVSPost2010PropOp51
 70
     0
102
RTVSPost2010Prop52
140
1.0
102
RTVSPost2010PropOp52
 70
     0
102
RTVSPost2010Prop53
 90
        2
102
RTVSPost2010PropOp53
 70
     1
102
RTVSPost2010Prop54
  1
strokes_ogs.tif
102
RTVSPost2010PropOp54
 70
     1
102
RTVSPost2010Prop55
280
     0
102
RTVSPost2010PropOp55
 70
     1
102
RTVSPost2010Prop56
140
1.0
102
RTVSPost2010PropOp56
 70
     1
102
RTVSPost2010Prop57
140
1.0
102
RTVSPost2010PropOp57
 70
     1
  0
XRECORD
  5
311
102
{ACAD_REACTORS
330
310
102
}
330
310
100
AcDbXrecord
280
     1
102
RTVSPropertyOp0
 70
     1
102
RTVSPropertyOp1
 70
     1
102
RTVSPropertyOp2
 70
     1
102
RTVSPropertyOp3
 70
     1
102
RTVSPropertyOp4
 70
     1
102
RTVSPropertyOp5
 70
     1
102
RTVSPropertyOp6
 70
     1
102
RTVSPropertyOp7
 70
     1
102
RTVSPropertyOp8
 70
     1
102
RTVSPropertyOp9
 70
     1
102
RTVSPropertyOp10
 70
     1
102
RTVSPropertyOp11
 70
     1
102
RTVSPropertyOp12
 70
     1
102
RTVSPropertyOp13
 70
     1
102
RTVSPropertyOp14
 70
     1
102
RTVSPropertyOp15
 70
     1
102
RTVSPropertyOp16
 70
     1
102
RTVSPropertyOp17
 70
     1
102
RTVSPropertyOp18
 70
     1
102
RTVSPropertyOp19
 70
     1
102
RTVSPropertyOp20
 70
     1
102
RTVSPropertyOp21
 70
     1
102
RTVSPropertyOp22
 70
     1
102
RTVSPropertyOp23
 70
     1
102
RTVSPropertyOp24
 70
     1
102
RTVSPropertyOp25
 70
     1
102
RTVSPropertyOp26
 70
     1
102
RTVSPropertyOp27
 70
     1
102
RTVSPropertyOp28
 70
     1
102
RTVSPropertyOp29
 70
     1
102
RTVSPropertyOp30
 70
     1
102
RTVSPropertyOp31
 70
     1
102
RTVSPropertyOp32
 70
     1
102
RTVSPropertyOp33
 70
     1
102
RTVSPropertyOp34
 70
     1
102
RTVSPropertyOp35
 70
     1
102
RTVSPropertyOp36
 70
     1
102
RTVSPropertyOp37
 70
     1
102
RTVSPropertyOp38
 70
     1
102
RTVSPropertyOp39
 70
     1
102
RTVSPropertyOp40
 70
     1
102
RTVSPropertyOp41
 70
     1
102
RTVSPropertyOp42
 70
     1
102
RTVSPropertyOp43
 70
     1
102
RTVSPropertyOp44
 70
     1
102
RTVSPropertyOp45
 70
     1
102
RTVSPropertyOp46
 70
     1
102
RTVSPropertyOp47
 70
     1
102
RTVSPropertyOp48
 70
     1
102
RTVSPropertyOp49
 70
     1
102
RTVSPropertyOp50
 70
     1
102
RTVSPropertyOp51
 70
     0
102
RTVSPropertyOp52
 70
     0
102
RTVSPropertyOp53
 70
     1
102
RTVSPropertyOp54
 70
     1
102
RTVSPropertyOp55
 70
     1
102
RTVSPropertyOp56
 70
     1
102
RTVSPropertyOp57
 70
     1
102
RTVSPost2010Prop28
280
     0
102
RTVSPost2010PropOp28
 70
     1
102
RTVSPost2010Prop29
280
     1
102
RTVSPost2010PropOp29
 70
     1
102
RTVSPost2010Prop30
280
     1
102
RTVSPost2010PropOp30
 70
     1
102
RTVSPost2010Prop31
280
     0
102
RTVSPost2010PropOp31
 70
     1
102
RTVSPost2010Prop32
280
     0
102
RTVSPost2010PropOp32
 70
     1
102
RTVSPost2010Prop33
280
     0
102
RTVSPost2010PropOp33
 70
     1
102
RTVSPost2010Prop34
280
     0
102
RTVSPost2010PropOp34
 70
     1
102
RTVSPost2010Prop35
280
     0
102
RTVSPost2010PropOp35
 70
     1
102
RTVSPost2010Prop36
280
     0
102
RTVSPost2010PropOp36
 70
     1
102
RTVSPost2010Prop37
 90
       50
102
RTVSPost2010PropOp37
 70
     1
102
RTVSPost2010Prop38
140
0.0
102
RTVSPost2010PropOp38
 70
     1
102
RTVSPost2010Prop39
140
1.0
102
RTVSPost2010PropOp39
 70
     1
102
RTVSPost2010Prop40
 90
        0
102
RTVSPost2010PropOp40
 70
     1
102
RTVSPost2010Prop41ColorIndex
 90
       18
102
RTVSPost2010Prop41ColorRGB
 90
        0
102
RTVSPost2010PropOp41
 70
     1
102
RTVSPost2010Prop42
 90
       50
102
RTVSPost2010PropOp42
 70
     1
102
RTVSPost2010Prop43
 90
        3
102
RTVSPost2010PropOp43
 70
     1
102
RTVSPost2010Prop44ColorIndex
 90
        5
102
RTVSPost2010Prop44ColorRGB
 90
      255
102
RTVSPost2010PropOp44
 70
     1
102
RTVSPost2010Prop45
280
     0
102
RTVSPost2010PropOp45
 70
     1
102
RTVSPost2010Prop46
 90
       50
102
RTVSPost2010PropOp46
 70
     1
102
RTVSPost2010Prop47
 90
       50
102
RTVSPost2010PropOp47
 70
     1
102
RTVSPost2010Prop48
 90
       50
102
RTVSPost2010PropOp48
 70
     1
102
RTVSPost2010Prop49
280
     0
102
RTVSPost2010PropOp49
 70
     1
102
RTVSPost2010Prop50
 90
       50
102
RTVSPost2010PropOp50
 70
     1
102
RTVSPost2010Prop51ColorIndex
 90
      256
102
RTVSPost2010Prop51ColorRGB
 90
-16777216
102
RTVSPost2010PropOp51
 70
     0
102
RTVSPost2010Prop52
140
1.0
102
RTVSPost2010PropOp52
 70
     0
102
RTVSPost2010Prop53
 90
        2
102
RTVSPost2010PropOp53
 70
     1
102
RTVSPost2010Prop54
  1
strokes_ogs.tif
102
RTVSPost2010PropOp54
 70
     1
102
RTVSPost2010Prop55
280
     0
102
RTVSPost2010PropOp55
 70
     1
102
RTVSPost2010Prop56
140
1.0
102
RTVSPost2010PropOp56
 70
     1
102
RTVSPost2010Prop57
140
1.0
102
RTVSPost2010PropOp57
 70
     1
  0
XRECORD
  5
313
102
{ACAD_REACTORS
330
312
102
}
330
312
100
AcDbXrecord
280
     1
102
RTVSPropertyOp0
 70
     1
102
RTVSPropertyOp1
 70
     1
102
RTVSPropertyOp2
 70
     1
102
RTVSPropertyOp3
 70
     1
102
RTVSPropertyOp4
 70
     1
102
RTVSPropertyOp5
 70
     1
102
RTVSPropertyOp6
 70
     1
102
RTVSPropertyOp7
 70
     1
102
RTVSPropertyOp8
 70
     1
102
RTVSPropertyOp9
 70
     1
102
RTVSPropertyOp10
 70
     1
102
RTVSPropertyOp11
 70
     1
102
RTVSPropertyOp12
 70
     1
102
RTVSPropertyOp13
 70
     1
102
RTVSPropertyOp14
 70
     1
102
RTVSPropertyOp15
 70
     1
102
RTVSPropertyOp16
 70
     1
102
RTVSPropertyOp17
 70
     1
102
RTVSPropertyOp18
 70
     1
102
RTVSPropertyOp19
 70
     1
102
RTVSPropertyOp20
 70
     1
102
RTVSPropertyOp21
 70
     1
102
RTVSPropertyOp22
 70
     1
102
RTVSPropertyOp23
 70
     1
102
RTVSPropertyOp24
 70
     1
102
RTVSPropertyOp25
 70
     1
102
RTVSPropertyOp26
 70
     1
102
RTVSPropertyOp27
 70
     1
102
RTVSPropertyOp28
 70
     1
102
RTVSPropertyOp29
 70
     1
102
RTVSPropertyOp30
 70
     1
102
RTVSPropertyOp31
 70
     1
102
RTVSPropertyOp32
 70
     1
102
RTVSPropertyOp33
 70
     1
102
RTVSPropertyOp34
 70
     1
102
RTVSPropertyOp35
 70
     1
102
RTVSPropertyOp36
 70
     1
102
RTVSPropertyOp37
 70
     1
102
RTVSPropertyOp38
 70
     1
102
RTVSPropertyOp39
 70
     1
102
RTVSPropertyOp40
 70
     1
102
RTVSPropertyOp41
 70
     1
102
RTVSPropertyOp42
 70
     1
102
RTVSPropertyOp43
 70
     1
102
RTVSPropertyOp44
 70
     1
102
RTVSPropertyOp45
 70
     1
102
RTVSPropertyOp46
 70
     1
102
RTVSPropertyOp47
 70
     1
102
RTVSPropertyOp48
 70
     1
102
RTVSPropertyOp49
 70
     1
102
RTVSPropertyOp50
 70
     1
102
RTVSPropertyOp51
 70
     0
102
RTVSPropertyOp52
 70
     0
102
RTVSPropertyOp53
 70
     1
102
RTVSPropertyOp54
 70
     1
102
RTVSPropertyOp55
 70
     1
102
RTVSPropertyOp56
 70
     1
102
RTVSPropertyOp57
 70
     1
102
RTVSPost2010Prop28
280
     0
102
RTVSPost2010PropOp28
 70
     1
102
RTVSPost2010Prop29
280
     1
102
RTVSPost2010PropOp29
 70
     1
102
RTVSPost2010Prop30
280
     1
102
RTVSPost2010PropOp30
 70
     1
102
RTVSPost2010Prop31
280
     0
102
RTVSPost2010PropOp31
 70
     1
102
RTVSPost2010Prop32
280
     0
102
RTVSPost2010PropOp32
 70
     1
102
RTVSPost2010Prop33
280
     0
102
RTVSPost2010PropOp33
 70
     1
102
RTVSPost2010Prop34
280
     0
102
RTVSPost2010PropOp34
 70
     1
102
RTVSPost2010Prop35
280
     0
102
RTVSPost2010PropOp35
 70
     1
102
RTVSPost2010Prop36
280
     0
102
RTVSPost2010PropOp36
 70
     1
102
RTVSPost2010Prop37
 90
       50
102
RTVSPost2010PropOp37
 70
     1
102
RTVSPost2010Prop38
140
0.0
102
RTVSPost2010PropOp38
 70
     1
102
RTVSPost2010Prop39
140
1.0
102
RTVSPost2010PropOp39
 70
     1
102
RTVSPost2010Prop40
 90
        0
102
RTVSPost2010PropOp40
 70
     1
102
RTVSPost2010Prop41ColorIndex
 90
       18
102
RTVSPost2010Prop41ColorRGB
 90
        0
102
RTVSPost2010PropOp41
 70
     1
102
RTVSPost2010Prop42
 90
       50
102
RTVSPost2010PropOp42
 70
     1
102
RTVSPost2010Prop43
 90
        3
102
RTVSPost2010PropOp43
 70
     1
102
RTVSPost2010Prop44ColorIndex
 90
        5
102
RTVSPost2010Prop44ColorRGB
 90
      255
102
RTVSPost2010PropOp44
 70
     1
102
RTVSPost2010Prop45
280
     0
102
RTVSPost2010PropOp45
 70
     1
102
RTVSPost2010Prop46
 90
       50
102
RTVSPost2010PropOp46
 70
     1
102
RTVSPost2010Prop47
 90
       50
102
RTVSPost2010PropOp47
 70
     1
102
RTVSPost2010Prop48
 90
       50
102
RTVSPost2010PropOp48
 70
     1
102
RTVSPost2010Prop49
280
     0
102
RTVSPost2010PropOp49
 70
     1
102
RTVSPost2010Prop50
 90
       50
102
RTVSPost2010PropOp50
 70
     1
102
RTVSPost2010Prop51ColorIndex
 90
      256
102
RTVSPost2010Prop51ColorRGB
 90
-16777216
102
RTVSPost2010PropOp51
 70
     0
102
RTVSPost2010Prop52
140
1.0
102
RTVSPost2010PropOp52
 70
     0
102
RTVSPost2010Prop53
 90
        2
102
RTVSPost2010PropOp53
 70
     1
102
RTVSPost2010Prop54
  1
strokes_ogs.tif
102
RTVSPost2010PropOp54
 70
     1
102
RTVSPost2010Prop55
280
     0
102
RTVSPost2010PropOp55
 70
     1
102
RTVSPost2010Prop56
140
1.0
102
RTVSPost2010PropOp56
 70
     1
102
RTVSPost2010Prop57
140
1.0
102
RTVSPost2010PropOp57
 70
     1
  0
XRECORD
  5
315
102
{ACAD_REACTORS
330
314
102
}
330
314
100
AcDbXrecord
280
     1
102
RTVSPropertyOp0
 70
     1
102
RTVSPropertyOp1
 70
     1
102
RTVSPropertyOp2
 70
     1
102
RTVSPropertyOp3
 70
     1
102
RTVSPropertyOp4
 70
     1
102
RTVSPropertyOp5
 70
     1
102
RTVSPropertyOp6
 70
     1
102
RTVSPropertyOp7
 70
     1
102
RTVSPropertyOp8
 70
     1
102
RTVSPropertyOp9
 70
     1
102
RTVSPropertyOp10
 70
     1
102
RTVSPropertyOp11
 70
     1
102
RTVSPropertyOp12
 70
     1
102
RTVSPropertyOp13
 70
     1
102
RTVSPropertyOp14
 70
     1
102
RTVSPropertyOp15
 70
     1
102
RTVSPropertyOp16
 70
     1
102
RTVSPropertyOp17
 70
     1
102
RTVSPropertyOp18
 70
     1
102
RTVSPropertyOp19
 70
     1
102
RTVSPropertyOp20
 70
     1
102
RTVSPropertyOp21
 70
     1
102
RTVSPropertyOp22
 70
     1
102
RTVSPropertyOp23
 70
     1
102
RTVSPropertyOp24
 70
     1
102
RTVSPropertyOp25
 70
     1
102
RTVSPropertyOp26
 70
     1
102
RTVSPropertyOp27
 70
     1
102
RTVSPropertyOp28
 70
     1
102
RTVSPropertyOp29
 70
     1
102
RTVSPropertyOp30
 70
     1
102
RTVSPropertyOp31
 70
     1
102
RTVSPropertyOp32
 70
     1
102
RTVSPropertyOp33
 70
     1
102
RTVSPropertyOp34
 70
     1
102
RTVSPropertyOp35
 70
     1
102
RTVSPropertyOp36
 70
     1
102
RTVSPropertyOp37
 70
     1
102
RTVSPropertyOp38
 70
     1
102
RTVSPropertyOp39
 70
     1
102
RTVSPropertyOp40
 70
     1
102
RTVSPropertyOp41
 70
     1
102
RTVSPropertyOp42
 70
     1
102
RTVSPropertyOp43
 70
     1
102
RTVSPropertyOp44
 70
     1
102
RTVSPropertyOp45
 70
     1
102
RTVSPropertyOp46
 70
     1
102
RTVSPropertyOp47
 70
     1
102
RTVSPropertyOp48
 70
     1
102
RTVSPropertyOp49
 70
     1
102
RTVSPropertyOp50
 70
     1
102
RTVSPropertyOp51
 70
     0
102
RTVSPropertyOp52
 70
     0
102
RTVSPropertyOp53
 70
     1
102
RTVSPropertyOp54
 70
     1
102
RTVSPropertyOp55
 70
     1
102
RTVSPropertyOp56
 70
     1
102
RTVSPropertyOp57
 70
     1
102
RTVSPost2010Prop28
280
     0
102
RTVSPost2010PropOp28
 70
     1
102
RTVSPost2010Prop29
280
     1
102
RTVSPost2010PropOp29
 70
     1
102
RTVSPost2010Prop30
280
     1
102
RTVSPost2010PropOp30
 70
     1
102
RTVSPost2010Prop31
280
     0
102
RTVSPost2010PropOp31
 70
     1
102
RTVSPost2010Prop32
280
     0
102
RTVSPost2010PropOp32
 70
     1
102
RTVSPost2010Prop33
280
     0
102
RTVSPost2010PropOp33
 70
     1
102
RTVSPost2010Prop34
280
     0
102
RTVSPost2010PropOp34
 70
     1
102
RTVSPost2010Prop35
280
     0
102
RTVSPost2010PropOp35
 70
     1
102
RTVSPost2010Prop36
280
     0
102
RTVSPost2010PropOp36
 70
     1
102
RTVSPost2010Prop37
 90
       50
102
RTVSPost2010PropOp37
 70
     1
102
RTVSPost2010Prop38
140
0.0
102
RTVSPost2010PropOp38
 70
     1
102
RTVSPost2010Prop39
140
1.0
102
RTVSPost2010PropOp39
 70
     1
102
RTVSPost2010Prop40
 90
        0
102
RTVSPost2010PropOp40
 70
     1
102
RTVSPost2010Prop41ColorIndex
 90
       18
102
RTVSPost2010Prop41ColorRGB
 90
        0
102
RTVSPost2010PropOp41
 70
     1
102
RTVSPost2010Prop42
 90
       50
102
RTVSPost2010PropOp42
 70
     1
102
RTVSPost2010Prop43
 90
        3
102
RTVSPost2010PropOp43
 70
     1
102
RTVSPost2010Prop44ColorIndex
 90
        5
102
RTVSPost2010Prop44ColorRGB
 90
      255
102
RTVSPost2010PropOp44
 70
     1
102
RTVSPost2010Prop45
280
     0
102
RTVSPost2010PropOp45
 70
     1
102
RTVSPost2010Prop46
 90
       50
102
RTVSPost2010PropOp46
 70
     1
102
RTVSPost2010Prop47
 90
       50
102
RTVSPost2010PropOp47
 70
     1
102
RTVSPost2010Prop48
 90
       50
102
RTVSPost2010PropOp48
 70
     1
102
RTVSPost2010Prop49
280
     0
102
RTVSPost2010PropOp49
 70
     1
102
RTVSPost2010Prop50
 90
       50
102
RTVSPost2010PropOp50
 70
     1
102
RTVSPost2010Prop51ColorIndex
 90
      256
102
RTVSPost2010Prop51ColorRGB
 90
-16777216
102
RTVSPost2010PropOp51
 70
     0
102
RTVSPost2010Prop52
140
1.0
102
RTVSPost2010PropOp52
 70
     0
102
RTVSPost2010Prop53
 90
        2
102
RTVSPost2010PropOp53
 70
     1
102
RTVSPost2010Prop54
  1
strokes_ogs.tif
102
RTVSPost2010PropOp54
 70
     1
102
RTVSPost2010Prop55
280
     0
102
RTVSPost2010PropOp55
 70
     1
102
RTVSPost2010Prop56
140
1.0
102
RTVSPost2010PropOp56
 70
     1
102
RTVSPost2010Prop57
140
1.0
102
RTVSPost2010PropOp57
 70
     1
  0
XRECORD
  5
31B
102
{ACAD_REACTORS
330
31A
102
}
330
31A
100
AcDbXrecord
280
     1
102
RTVSPropertyOp0
 70
     1
102
RTVSPropertyOp1
 70
     1
102
RTVSPropertyOp2
 70
     1
102
RTVSPropertyOp3
 70
     1
102
RTVSPropertyOp4
 70
     1
102
RTVSPropertyOp5
 70
     1
102
RTVSPropertyOp6
 70
     1
102
RTVSPropertyOp7
 70
     1
102
RTVSPropertyOp8
 70
     1
102
RTVSPropertyOp9
 70
     1
102
RTVSPropertyOp10
 70
     1
102
RTVSPropertyOp11
 70
     1
102
RTVSPropertyOp12
 70
     1
102
RTVSPropertyOp13
 70
     1
102
RTVSPropertyOp14
 70
     1
102
RTVSPropertyOp15
 70
     1
102
RTVSPropertyOp16
 70
     1
102
RTVSPropertyOp17
 70
     1
102
RTVSPropertyOp18
 70
     1
102
RTVSPropertyOp19
 70
     1
102
RTVSPropertyOp20
 70
     1
102
RTVSPropertyOp21
 70
     1
102
RTVSPropertyOp22
 70
     1
102
RTVSPropertyOp23
 70
     1
102
RTVSPropertyOp24
 70
     1
102
RTVSPropertyOp25
 70
     1
102
RTVSPropertyOp26
 70
     1
102
RTVSPropertyOp27
 70
     1
102
RTVSPropertyOp28
 70
     1
102
RTVSPropertyOp29
 70
     1
102
RTVSPropertyOp30
 70
     1
102
RTVSPropertyOp31
 70
     1
102
RTVSPropertyOp32
 70
     1
102
RTVSPropertyOp33
 70
     1
102
RTVSPropertyOp34
 70
     1
102
RTVSPropertyOp35
 70
     1
102
RTVSPropertyOp36
 70
     1
102
RTVSPropertyOp37
 70
     1
102
RTVSPropertyOp38
 70
     1
102
RTVSPropertyOp39
 70
     1
102
RTVSPropertyOp40
 70
     1
102
RTVSPropertyOp41
 70
     1
102
RTVSPropertyOp42
 70
     1
102
RTVSPropertyOp43
 70
     1
102
RTVSPropertyOp44
 70
     1
102
RTVSPropertyOp45
 70
     1
102
RTVSPropertyOp46
 70
     1
102
RTVSPropertyOp47
 70
     1
102
RTVSPropertyOp48
 70
     1
102
RTVSPropertyOp49
 70
     1
102
RTVSPropertyOp50
 70
     1
102
RTVSPropertyOp51
 70
     0
102
RTVSPropertyOp52
 70
     0
102
RTVSPropertyOp53
 70
     1
102
RTVSPropertyOp54
 70
     1
102
RTVSPropertyOp55
 70
     1
102
RTVSPropertyOp56
 70
     1
102
RTVSPropertyOp57
 70
     1
102
RTVSPost2010Prop28
280
     0
102
RTVSPost2010PropOp28
 70
     1
102
RTVSPost2010Prop29
280
     1
102
RTVSPost2010PropOp29
 70
     1
102
RTVSPost2010Prop30
280
     1
102
RTVSPost2010PropOp30
 70
     1
102
RTVSPost2010Prop31
280
     0
102
RTVSPost2010PropOp31
 70
     1
102
RTVSPost2010Prop32
280
     0
102
RTVSPost2010PropOp32
 70
     1
102
RTVSPost2010Prop33
280
     0
102
RTVSPost2010PropOp33
 70
     1
102
RTVSPost2010Prop34
280
     0
102
RTVSPost2010PropOp34
 70
     1
102
RTVSPost2010Prop35
280
     0
102
RTVSPost2010PropOp35
 70
     1
102
RTVSPost2010Prop36
280
     0
102
RTVSPost2010PropOp36
 70
     1
102
RTVSPost2010Prop37
 90
       50
102
RTVSPost2010PropOp37
 70
     1
102
RTVSPost2010Prop38
140
0.0
102
RTVSPost2010PropOp38
 70
     1
102
RTVSPost2010Prop39
140
1.0
102
RTVSPost2010PropOp39
 70
     1
102
RTVSPost2010Prop40
 90
        0
102
RTVSPost2010PropOp40
 70
     1
102
RTVSPost2010Prop41ColorIndex
 90
       18
102
RTVSPost2010Prop41ColorRGB
 90
        0
102
RTVSPost2010PropOp41
 70
     1
102
RTVSPost2010Prop42
 90
       50
102
RTVSPost2010PropOp42
 70
     1
102
RTVSPost2010Prop43
 90
        3
102
RTVSPost2010PropOp43
 70
     1
102
RTVSPost2010Prop44ColorIndex
 90
        5
102
RTVSPost2010Prop44ColorRGB
 90
      255
102
RTVSPost2010PropOp44
 70
     1
102
RTVSPost2010Prop45
280
     0
102
RTVSPost2010PropOp45
 70
     1
102
RTVSPost2010Prop46
 90
       50
102
RTVSPost2010PropOp46
 70
     1
102
RTVSPost2010Prop47
 90
       50
102
RTVSPost2010PropOp47
 70
     1
102
RTVSPost2010Prop48
 90
       50
102
RTVSPost2010PropOp48
 70
     1
102
RTVSPost2010Prop49
280
     0
102
RTVSPost2010PropOp49
 70
     1
102
RTVSPost2010Prop50
 90
       50
102
RTVSPost2010PropOp50
 70
     1
102
RTVSPost2010Prop51ColorIndex
 90
      256
102
RTVSPost2010Prop51ColorRGB
 90
-16777216
102
RTVSPost2010PropOp51
 70
     0
102
RTVSPost2010Prop52
140
1.0
102
RTVSPost2010PropOp52
 70
     0
102
RTVSPost2010Prop53
 90
        2
102
RTVSPost2010PropOp53
 70
     1
102
RTVSPost2010Prop54
  1
strokes_ogs.tif
102
RTVSPost2010PropOp54
 70
     1
102
RTVSPost2010Prop55
280
     0
102
RTVSPost2010PropOp55
 70
     1
102
RTVSPost2010Prop56
140
1.0
102
RTVSPost2010PropOp56
 70
     1
102
RTVSPost2010Prop57
140
1.0
102
RTVSPost2010PropOp57
 70
     1
  0
XRECORD
  5
32F
102
{ACAD_REACTORS
330
32E
102
}
330
32E
100
AcDbXrecord
280
     1
102
RTVSPropertyOp0
 70
     0
102
RTVSPropertyOp1
 70
     0
102
RTVSPropertyOp2
 70
     0
102
RTVSPropertyOp3
 70
     0
102
RTVSPropertyOp4
 70
     0
102
RTVSPropertyOp5
 70
     0
102
RTVSPropertyOp6
 70
     0
102
RTVSPropertyOp7
 70
     0
102
RTVSPropertyOp8
 70
     0
102
RTVSPropertyOp9
 70
     0
102
RTVSPropertyOp10
 70
     0
102
RTVSPropertyOp11
 70
     0
102
RTVSPropertyOp12
 70
     0
102
RTVSPropertyOp13
 70
     0
102
RTVSPropertyOp14
 70
     2
102
RTVSPropertyOp15
 70
     0
102
RTVSPropertyOp16
 70
     0
102
RTVSPropertyOp17
 70
     0
102
RTVSPropertyOp18
 70
     0
102
RTVSPropertyOp19
 70
     0
102
RTVSPropertyOp20
 70
     0
102
RTVSPropertyOp21
 70
     0
102
RTVSPropertyOp22
 70
     0
102
RTVSPropertyOp23
 70
     0
102
RTVSPropertyOp24
 70
     0
102
RTVSPropertyOp25
 70
     0
102
RTVSPropertyOp26
 70
     0
102
RTVSPropertyOp27
 70
     0
102
RTVSPropertyOp28
 70
     0
102
RTVSPropertyOp29
 70
     0
102
RTVSPropertyOp30
 70
     0
102
RTVSPropertyOp31
 70
     0
102
RTVSPropertyOp32
 70
     0
102
RTVSPropertyOp33
 70
     0
102
RTVSPropertyOp34
 70
     0
102
RTVSPropertyOp35
 70
     0
102
RTVSPropertyOp36
 70
     0
102
RTVSPropertyOp37
 70
     0
102
RTVSPropertyOp38
 70
     0
102
RTVSPropertyOp39
 70
     0
102
RTVSPropertyOp40
 70
     0
102
RTVSPropertyOp41
 70
     0
102
RTVSPropertyOp42
 70
     0
102
RTVSPropertyOp43
 70
     0
102
RTVSPropertyOp44
 70
     0
102
RTVSPropertyOp45
 70
     0
102
RTVSPropertyOp46
 70
     0
102
RTVSPropertyOp47
 70
     0
102
RTVSPropertyOp48
 70
     0
102
RTVSPropertyOp49
 70
     0
102
RTVSPropertyOp50
 70
     0
102
RTVSPropertyOp51
 70
     0
102
RTVSPropertyOp52
 70
     0
102
RTVSPropertyOp53
 70
     0
102
RTVSPropertyOp54
 70
     0
102
RTVSPropertyOp55
 70
     0
102
RTVSPropertyOp56
 70
     0
102
RTVSPropertyOp57
 70
     0
102
RTVSPost2010Prop28
280
     0
102
RTVSPost2010PropOp28
 70
     0
102
RTVSPost2010Prop29
280
     1
102
RTVSPost2010PropOp29
 70
     0
102
RTVSPost2010Prop30
280
     1
102
RTVSPost2010PropOp30
 70
     0
102
RTVSPost2010Prop31
280
     0
102
RTVSPost2010PropOp31
 70
     0
102
RTVSPost2010Prop32
280
     0
102
RTVSPost2010PropOp32
 70
     0
102
RTVSPost2010Prop33
280
     0
102
RTVSPost2010PropOp33
 70
     0
102
RTVSPost2010Prop34
280
     0
102
RTVSPost2010PropOp34
 70
     0
102
RTVSPost2010Prop35
280
     0
102
RTVSPost2010PropOp35
 70
     0
102
RTVSPost2010Prop36
280
     0
102
RTVSPost2010PropOp36
 70
     0
102
RTVSPost2010Prop37
 90
       50
102
RTVSPost2010PropOp37
 70
     0
102
RTVSPost2010Prop38
140
0.0
102
RTVSPost2010PropOp38
 70
     0
102
RTVSPost2010Prop39
140
1.0
102
RTVSPost2010PropOp39
 70
     0
102
RTVSPost2010Prop40
 90
        0
102
RTVSPost2010PropOp40
 70
     0
102
RTVSPost2010Prop41ColorIndex
 90
       18
102
RTVSPost2010Prop41ColorRGB
 90
        0
102
RTVSPost2010PropOp41
 70
     0
102
RTVSPost2010Prop42
 90
       50
102
RTVSPost2010PropOp42
 70
     0
102
RTVSPost2010Prop43
 90
        3
102
RTVSPost2010PropOp43
 70
     0
102
RTVSPost2010Prop44ColorIndex
 90
        5
102
RTVSPost2010Prop44ColorRGB
 90
      255
102
RTVSPost2010PropOp44
 70
     0
102
RTVSPost2010Prop45
280
     0
102
RTVSPost2010PropOp45
 70
     0
102
RTVSPost2010Prop46
 90
       50
102
RTVSPost2010PropOp46
 70
     0
102
RTVSPost2010Prop47
 90
       50
102
RTVSPost2010PropOp47
 70
     0
102
RTVSPost2010Prop48
 90
       50
102
RTVSPost2010PropOp48
 70
     0
102
RTVSPost2010Prop49
280
     0
102
RTVSPost2010PropOp49
 70
     0
102
RTVSPost2010Prop50
 90
       50
102
RTVSPost2010PropOp50
 70
     0
102
RTVSPost2010Prop51ColorIndex
 90
      256
102
RTVSPost2010Prop51ColorRGB
 90
-16777216
102
RTVSPost2010PropOp51
 70
     0
102
RTVSPost2010Prop52
140
1.0
102
RTVSPost2010PropOp52
 70
     0
102
RTVSPost2010Prop53
 90
        2
102
RTVSPost2010PropOp53
 70
     0
102
RTVSPost2010Prop54
  1
strokes_ogs.tif
102
RTVSPost2010PropOp54
 70
     0
102
RTVSPost2010Prop55
280
     0
102
RTVSPost2010PropOp55
 70
     0
102
RTVSPost2010Prop56
140
1.0
102
RTVSPost2010PropOp56
 70
     0
102
RTVSPost2010Prop57
140
1.0
102
RTVSPost2010PropOp57
 70
     0
  0
XRECORD
  5
329
102
{ACAD_REACTORS
330
328
102
}
330
328
100
AcDbXrecord
280
     1
102
RTVSPropertyOp0
 70
     1
102
RTVSPropertyOp1
 70
     1
102
RTVSPropertyOp2
 70
     1
102
RTVSPropertyOp3
 70
     1
102
RTVSPropertyOp4
 70
     1
102
RTVSPropertyOp5
 70
     1
102
RTVSPropertyOp6
 70
     1
102
RTVSPropertyOp7
 70
     1
102
RTVSPropertyOp8
 70
     1
102
RTVSPropertyOp9
 70
     1
102
RTVSPropertyOp10
 70
     1
102
RTVSPropertyOp11
 70
     1
102
RTVSPropertyOp12
 70
     1
102
RTVSPropertyOp13
 70
     1
102
RTVSPropertyOp14
 70
     1
102
RTVSPropertyOp15
 70
     1
102
RTVSPropertyOp16
 70
     1
102
RTVSPropertyOp17
 70
     1
102
RTVSPropertyOp18
 70
     1
102
RTVSPropertyOp19
 70
     1
102
RTVSPropertyOp20
 70
     1
102
RTVSPropertyOp21
 70
     1
102
RTVSPropertyOp22
 70
     1
102
RTVSPropertyOp23
 70
     1
102
RTVSPropertyOp24
 70
     1
102
RTVSPropertyOp25
 70
     1
102
RTVSPropertyOp26
 70
     1
102
RTVSPropertyOp27
 70
     1
102
RTVSPropertyOp28
 70
     1
102
RTVSPropertyOp29
 70
     1
102
RTVSPropertyOp30
 70
     1
102
RTVSPropertyOp31
 70
     1
102
RTVSPropertyOp32
 70
     1
102
RTVSPropertyOp33
 70
     1
102
RTVSPropertyOp34
 70
     1
102
RTVSPropertyOp35
 70
     1
102
RTVSPropertyOp36
 70
     1
102
RTVSPropertyOp37
 70
     1
102
RTVSPropertyOp38
 70
     1
102
RTVSPropertyOp39
 70
     1
102
RTVSPropertyOp40
 70
     1
102
RTVSPropertyOp41
 70
     1
102
RTVSPropertyOp42
 70
     1
102
RTVSPropertyOp43
 70
     1
102
RTVSPropertyOp44
 70
     1
102
RTVSPropertyOp45
 70
     1
102
RTVSPropertyOp46
 70
     1
102
RTVSPropertyOp47
 70
     1
102
RTVSPropertyOp48
 70
     1
102
RTVSPropertyOp49
 70
     1
102
RTVSPropertyOp50
 70
     1
102
RTVSPropertyOp51
 70
     0
102
RTVSPropertyOp52
 70
     0
102
RTVSPropertyOp53
 70
     1
102
RTVSPropertyOp54
 70
     1
102
RTVSPropertyOp55
 70
     1
102
RTVSPropertyOp56
 70
     1
102
RTVSPropertyOp57
 70
     1
102
RTVSPost2010Prop28
280
     0
102
RTVSPost2010PropOp28
 70
     1
102
RTVSPost2010Prop29
280
     1
102
RTVSPost2010PropOp29
 70
     1
102
RTVSPost2010Prop30
280
     1
102
RTVSPost2010PropOp30
 70
     1
102
RTVSPost2010Prop31
280
     0
102
RTVSPost2010PropOp31
 70
     1
102
RTVSPost2010Prop32
280
     0
102
RTVSPost2010PropOp32
 70
     1
102
RTVSPost2010Prop33
280
     0
102
RTVSPost2010PropOp33
 70
     1
102
RTVSPost2010Prop34
280
     0
102
RTVSPost2010PropOp34
 70
     1
102
RTVSPost2010Prop35
280
     0
102
RTVSPost2010PropOp35
 70
     1
102
RTVSPost2010Prop36
280
     0
102
RTVSPost2010PropOp36
 70
     1
102
RTVSPost2010Prop37
 90
       50
102
RTVSPost2010PropOp37
 70
     1
102
RTVSPost2010Prop38
140
0.0
102
RTVSPost2010PropOp38
 70
     1
102
RTVSPost2010Prop39
140
1.0
102
RTVSPost2010PropOp39
 70
     1
102
RTVSPost2010Prop40
 90
        0
102
RTVSPost2010PropOp40
 70
     1
102
RTVSPost2010Prop41ColorIndex
 90
       18
102
RTVSPost2010Prop41ColorRGB
 90
        0
102
RTVSPost2010PropOp41
 70
     1
102
RTVSPost2010Prop42
 90
       50
102
RTVSPost2010PropOp42
 70
     1
102
RTVSPost2010Prop43
 90
        3
102
RTVSPost2010PropOp43
 70
     1
102
RTVSPost2010Prop44ColorIndex
 90
        5
102
RTVSPost2010Prop44ColorRGB
 90
      255
102
RTVSPost2010PropOp44
 70
     1
102
RTVSPost2010Prop45
280
     0
102
RTVSPost2010PropOp45
 70
     1
102
RTVSPost2010Prop46
 90
       50
102
RTVSPost2010PropOp46
 70
     1
102
RTVSPost2010Prop47
 90
       50
102
RTVSPost2010PropOp47
 70
     1
102
RTVSPost2010Prop48
 90
       50
102
RTVSPost2010PropOp48
 70
     1
102
RTVSPost2010Prop49
280
     0
102
RTVSPost2010PropOp49
 70
     1
102
RTVSPost2010Prop50
 90
       50
102
RTVSPost2010PropOp50
 70
     1
102
RTVSPost2010Prop51ColorIndex
 90
      256
102
RTVSPost2010Prop51ColorRGB
 90
-16777216
102
RTVSPost2010PropOp51
 70
     0
102
RTVSPost2010Prop52
140
1.0
102
RTVSPost2010PropOp52
 70
     0
102
RTVSPost2010Prop53
 90
        2
102
RTVSPost2010PropOp53
 70
     1
102
RTVSPost2010Prop54
  1
strokes_ogs.tif
102
RTVSPost2010PropOp54
 70
     1
102
RTVSPost2010Prop55
280
     0
102
RTVSPost2010PropOp55
 70
     1
102
RTVSPost2010Prop56
140
1.0
102
RTVSPost2010PropOp56
 70
     1
102
RTVSPost2010Prop57
140
1.0
102
RTVSPost2010PropOp57
 70
     1
  0
XRECORD
  5
331
102
{ACAD_REACTORS
330
330
102
}
330
330
100
AcDbXrecord
280
     1
102
RTVSPropertyOp0
 70
     0
102
RTVSPropertyOp1
 70
     0
102
RTVSPropertyOp2
 70
     0
102
RTVSPropertyOp3
 70
     0
102
RTVSPropertyOp4
 70
     0
102
RTVSPropertyOp5
 70
     0
102
RTVSPropertyOp6
 70
     0
102
RTVSPropertyOp7
 70
     0
102
RTVSPropertyOp8
 70
     0
102
RTVSPropertyOp9
 70
     0
102
RTVSPropertyOp10
 70
     0
102
RTVSPropertyOp11
 70
     0
102
RTVSPropertyOp12
 70
     0
102
RTVSPropertyOp13
 70
     0
102
RTVSPropertyOp14
 70
     2
102
RTVSPropertyOp15
 70
     0
102
RTVSPropertyOp16
 70
     0
102
RTVSPropertyOp17
 70
     0
102
RTVSPropertyOp18
 70
     0
102
RTVSPropertyOp19
 70
     0
102
RTVSPropertyOp20
 70
     0
102
RTVSPropertyOp21
 70
     0
102
RTVSPropertyOp22
 70
     0
102
RTVSPropertyOp23
 70
     0
102
RTVSPropertyOp24
 70
     0
102
RTVSPropertyOp25
 70
     0
102
RTVSPropertyOp26
 70
     0
102
RTVSPropertyOp27
 70
     0
102
RTVSPropertyOp28
 70
     0
102
RTVSPropertyOp29
 70
     0
102
RTVSPropertyOp30
 70
     0
102
RTVSPropertyOp31
 70
     0
102
RTVSPropertyOp32
 70
     0
102
RTVSPropertyOp33
 70
     0
102
RTVSPropertyOp34
 70
     0
102
RTVSPropertyOp35
 70
     0
102
RTVSPropertyOp36
 70
     0
102
RTVSPropertyOp37
 70
     0
102
RTVSPropertyOp38
 70
     0
102
RTVSPropertyOp39
 70
     0
102
RTVSPropertyOp40
 70
     0
102
RTVSPropertyOp41
 70
     0
102
RTVSPropertyOp42
 70
     0
102
RTVSPropertyOp43
 70
     0
102
RTVSPropertyOp44
 70
     0
102
RTVSPropertyOp45
 70
     0
102
RTVSPropertyOp46
 70
     0
102
RTVSPropertyOp47
 70
     0
102
RTVSPropertyOp48
 70
     0
102
RTVSPropertyOp49
 70
     0
102
RTVSPropertyOp50
 70
     0
102
RTVSPropertyOp51
 70
     0
102
RTVSPropertyOp52
 70
     0
102
RTVSPropertyOp53
 70
     0
102
RTVSPropertyOp54
 70
     0
102
RTVSPropertyOp55
 70
     0
102
RTVSPropertyOp56
 70
     0
102
RTVSPropertyOp57
 70
     0
102
RTVSPost2010Prop28
280
     0
102
RTVSPost2010PropOp28
 70
     0
102
RTVSPost2010Prop29
280
     1
102
RTVSPost2010PropOp29
 70
     0
102
RTVSPost2010Prop30
280
     1
102
RTVSPost2010PropOp30
 70
     0
102
RTVSPost2010Prop31
280
     0
102
RTVSPost2010PropOp31
 70
     0
102
RTVSPost2010Prop32
280
     0
102
RTVSPost2010PropOp32
 70
     0
102
RTVSPost2010Prop33
280
     0
102
RTVSPost2010PropOp33
 70
     0
102
RTVSPost2010Prop34
280
     0
102
RTVSPost2010PropOp34
 70
     0
102
RTVSPost2010Prop35
280
     0
102
RTVSPost2010PropOp35
 70
     0
102
RTVSPost2010Prop36
280
     0
102
RTVSPost2010PropOp36
 70
     0
102
RTVSPost2010Prop37
 90
       50
102
RTVSPost2010PropOp37
 70
     0
102
RTVSPost2010Prop38
140
0.0
102
RTVSPost2010PropOp38
 70
     0
102
RTVSPost2010Prop39
140
1.0
102
RTVSPost2010PropOp39
 70
     0
102
RTVSPost2010Prop40
 90
        0
102
RTVSPost2010PropOp40
 70
     0
102
RTVSPost2010Prop41ColorIndex
 90
       18
102
RTVSPost2010Prop41ColorRGB
 90
        0
102
RTVSPost2010PropOp41
 70
     0
102
RTVSPost2010Prop42
 90
       50
102
RTVSPost2010PropOp42
 70
     0
102
RTVSPost2010Prop43
 90
        3
102
RTVSPost2010PropOp43
 70
     0
102
RTVSPost2010Prop44ColorIndex
 90
        5
102
RTVSPost2010Prop44ColorRGB
 90
      255
102
RTVSPost2010PropOp44
 70
     0
102
RTVSPost2010Prop45
280
     0
102
RTVSPost2010PropOp45
 70
     0
102
RTVSPost2010Prop46
 90
       50
102
RTVSPost2010PropOp46
 70
     0
102
RTVSPost2010Prop47
 90
       50
102
RTVSPost2010PropOp47
 70
     0
102
RTVSPost2010Prop48
 90
       50
102
RTVSPost2010PropOp48
 70
     0
102
RTVSPost2010Prop49
280
     0
102
RTVSPost2010PropOp49
 70
     0
102
RTVSPost2010Prop50
 90
       50
102
RTVSPost2010PropOp50
 70
     0
102
RTVSPost2010Prop51ColorIndex
 90
      256
102
RTVSPost2010Prop51ColorRGB
 90
-16777216
102
RTVSPost2010PropOp51
 70
     0
102
RTVSPost2010Prop52
140
1.0
102
RTVSPost2010PropOp52
 70
     0
102
RTVSPost2010Prop53
 90
        2
102
RTVSPost2010PropOp53
 70
     0
102
RTVSPost2010Prop54
  1
strokes_ogs.tif
102
RTVSPost2010PropOp54
 70
     0
102
RTVSPost2010Prop55
280
     0
102
RTVSPost2010PropOp55
 70
     0
102
RTVSPost2010Prop56
140
1.0
102
RTVSPost2010PropOp56
 70
     0
102
RTVSPost2010Prop57
140
1.0
102
RTVSPost2010PropOp57
 70
     0
  0
XRECORD
  5
31F
102
{ACAD_REACTORS
330
31E
102
}
330
31E
100
AcDbXrecord
280
     1
102
RTVSPropertyOp0
 70
     1
102
RTVSPropertyOp1
 70
     1
102
RTVSPropertyOp2
 70
     1
102
RTVSPropertyOp3
 70
     1
102
RTVSPropertyOp4
 70
     1
102
RTVSPropertyOp5
 70
     1
102
RTVSPropertyOp6
 70
     1
102
RTVSPropertyOp7
 70
     1
102
RTVSPropertyOp8
 70
     1
102
RTVSPropertyOp9
 70
     1
102
RTVSPropertyOp10
 70
     1
102
RTVSPropertyOp11
 70
     1
102
RTVSPropertyOp12
 70
     1
102
RTVSPropertyOp13
 70
     1
102
RTVSPropertyOp14
 70
     1
102
RTVSPropertyOp15
 70
     1
102
RTVSPropertyOp16
 70
     1
102
RTVSPropertyOp17
 70
     1
102
RTVSPropertyOp18
 70
     1
102
RTVSPropertyOp19
 70
     1
102
RTVSPropertyOp20
 70
     1
102
RTVSPropertyOp21
 70
     1
102
RTVSPropertyOp22
 70
     1
102
RTVSPropertyOp23
 70
     1
102
RTVSPropertyOp24
 70
     1
102
RTVSPropertyOp25
 70
     1
102
RTVSPropertyOp26
 70
     1
102
RTVSPropertyOp27
 70
     1
102
RTVSPropertyOp28
 70
     1
102
RTVSPropertyOp29
 70
     1
102
RTVSPropertyOp30
 70
     1
102
RTVSPropertyOp31
 70
     1
102
RTVSPropertyOp32
 70
     1
102
RTVSPropertyOp33
 70
     1
102
RTVSPropertyOp34
 70
     1
102
RTVSPropertyOp35
 70
     1
102
RTVSPropertyOp36
 70
     1
102
RTVSPropertyOp37
 70
     1
102
RTVSPropertyOp38
 70
     1
102
RTVSPropertyOp39
 70
     1
102
RTVSPropertyOp40
 70
     1
102
RTVSPropertyOp41
 70
     1
102
RTVSPropertyOp42
 70
     1
102
RTVSPropertyOp43
 70
     1
102
RTVSPropertyOp44
 70
     1
102
RTVSPropertyOp45
 70
     1
102
RTVSPropertyOp46
 70
     1
102
RTVSPropertyOp47
 70
     1
102
RTVSPropertyOp48
 70
     1
102
RTVSPropertyOp49
 70
     1
102
RTVSPropertyOp50
 70
     1
102
RTVSPropertyOp51
 70
     0
102
RTVSPropertyOp52
 70
     0
102
RTVSPropertyOp53
 70
     1
102
RTVSPropertyOp54
 70
     1
102
RTVSPropertyOp55
 70
     1
102
RTVSPropertyOp56
 70
     1
102
RTVSPropertyOp57
 70
     1
102
RTVSPost2010Prop28
280
     0
102
RTVSPost2010PropOp28
 70
     1
102
RTVSPost2010Prop29
280
     1
102
RTVSPost2010PropOp29
 70
     1
102
RTVSPost2010Prop30
280
     1
102
RTVSPost2010PropOp30
 70
     1
102
RTVSPost2010Prop31
280
     0
102
RTVSPost2010PropOp31
 70
     1
102
RTVSPost2010Prop32
280
     0
102
RTVSPost2010PropOp32
 70
     1
102
RTVSPost2010Prop33
280
     0
102
RTVSPost2010PropOp33
 70
     1
102
RTVSPost2010Prop34
280
     0
102
RTVSPost2010PropOp34
 70
     1
102
RTVSPost2010Prop35
280
     0
102
RTVSPost2010PropOp35
 70
     1
102
RTVSPost2010Prop36
280
     0
102
RTVSPost2010PropOp36
 70
     1
102
RTVSPost2010Prop37
 90
       50
102
RTVSPost2010PropOp37
 70
     1
102
RTVSPost2010Prop38
140
0.0
102
RTVSPost2010PropOp38
 70
     1
102
RTVSPost2010Prop39
140
1.0
102
RTVSPost2010PropOp39
 70
     1
102
RTVSPost2010Prop40
 90
        0
102
RTVSPost2010PropOp40
 70
     1
102
RTVSPost2010Prop41ColorIndex
 90
       18
102
RTVSPost2010Prop41ColorRGB
 90
        0
102
RTVSPost2010PropOp41
 70
     1
102
RTVSPost2010Prop42
 90
       50
102
RTVSPost2010PropOp42
 70
     1
102
RTVSPost2010Prop43
 90
        3
102
RTVSPost2010PropOp43
 70
     1
102
RTVSPost2010Prop44ColorIndex
 90
        5
102
RTVSPost2010Prop44ColorRGB
 90
      255
102
RTVSPost2010PropOp44
 70
     1
102
RTVSPost2010Prop45
280
     0
102
RTVSPost2010PropOp45
 70
     1
102
RTVSPost2010Prop46
 90
       50
102
RTVSPost2010PropOp46
 70
     1
102
RTVSPost2010Prop47
 90
       50
102
RTVSPost2010PropOp47
 70
     1
102
RTVSPost2010Prop48
 90
       50
102
RTVSPost2010PropOp48
 70
     1
102
RTVSPost2010Prop49
280
     0
102
RTVSPost2010PropOp49
 70
     1
102
RTVSPost2010Prop50
 90
       50
102
RTVSPost2010PropOp50
 70
     1
102
RTVSPost2010Prop51ColorIndex
 90
      256
102
RTVSPost2010Prop51ColorRGB
 90
-16777216
102
RTVSPost2010PropOp51
 70
     0
102
RTVSPost2010Prop52
140
1.0
102
RTVSPost2010PropOp52
 70
     0
102
RTVSPost2010Prop53
 90
        2
102
RTVSPost2010PropOp53
 70
     1
102
RTVSPost2010Prop54
  1
strokes_ogs.tif
102
RTVSPost2010PropOp54
 70
     1
102
RTVSPost2010Prop55
280
     0
102
RTVSPost2010PropOp55
 70
     1
102
RTVSPost2010Prop56
140
1.0
102
RTVSPost2010PropOp56
 70
     1
102
RTVSPost2010Prop57
140
1.0
102
RTVSPost2010PropOp57
 70
     1
  0
XRECORD
  5
33D
102
{ACAD_REACTORS
330
33C
102
}
330
33C
100
AcDbXrecord
280
     1
102
RTVSPropertyOp0
 70
     1
102
RTVSPropertyOp1
 70
     1
102
RTVSPropertyOp2
 70
     1
102
RTVSPropertyOp3
 70
     1
102
RTVSPropertyOp4
 70
     1
102
RTVSPropertyOp5
 70
     1
102
RTVSPropertyOp6
 70
     1
102
RTVSPropertyOp7
 70
     1
102
RTVSPropertyOp8
 70
     1
102
RTVSPropertyOp9
 70
     1
102
RTVSPropertyOp10
 70
     1
102
RTVSPropertyOp11
 70
     1
102
RTVSPropertyOp12
 70
     1
102
RTVSPropertyOp13
 70
     1
102
RTVSPropertyOp14
 70
     1
102
RTVSPropertyOp15
 70
     1
102
RTVSPropertyOp16
 70
     1
102
RTVSPropertyOp17
 70
     1
102
RTVSPropertyOp18
 70
     1
102
RTVSPropertyOp19
 70
     1
102
RTVSPropertyOp20
 70
     1
102
RTVSPropertyOp21
 70
     1
102
RTVSPropertyOp22
 70
     1
102
RTVSPropertyOp23
 70
     1
102
RTVSPropertyOp24
 70
     1
102
RTVSPropertyOp25
 70
     1
102
RTVSPropertyOp26
 70
     1
102
RTVSPropertyOp27
 70
     1
102
RTVSPropertyOp28
 70
     1
102
RTVSPropertyOp29
 70
     1
102
RTVSPropertyOp30
 70
     1
102
RTVSPropertyOp31
 70
     1
102
RTVSPropertyOp32
 70
     1
102
RTVSPropertyOp33
 70
     1
102
RTVSPropertyOp34
 70
     1
102
RTVSPropertyOp35
 70
     1
102
RTVSPropertyOp36
 70
     1
102
RTVSPropertyOp37
 70
     1
102
RTVSPropertyOp38
 70
     1
102
RTVSPropertyOp39
 70
     1
102
RTVSPropertyOp40
 70
     1
102
RTVSPropertyOp41
 70
     1
102
RTVSPropertyOp42
 70
     1
102
RTVSPropertyOp43
 70
     1
102
RTVSPropertyOp44
 70
     1
102
RTVSPropertyOp45
 70
     1
102
RTVSPropertyOp46
 70
     1
102
RTVSPropertyOp47
 70
     1
102
RTVSPropertyOp48
 70
     1
102
RTVSPropertyOp49
 70
     1
102
RTVSPropertyOp50
 70
     1
102
RTVSPropertyOp51
 70
     0
102
RTVSPropertyOp52
 70
     0
102
RTVSPropertyOp53
 70
     1
102
RTVSPropertyOp54
 70
     1
102
RTVSPropertyOp55
 70
     1
102
RTVSPropertyOp56
 70
     1
102
RTVSPropertyOp57
 70
     1
102
RTVSPost2010Prop28
280
     0
102
RTVSPost2010PropOp28
 70
     1
102
RTVSPost2010Prop29
280
     1
102
RTVSPost2010PropOp29
 70
     1
102
RTVSPost2010Prop30
280
     1
102
RTVSPost2010PropOp30
 70
     1
102
RTVSPost2010Prop31
280
     0
102
RTVSPost2010PropOp31
 70
     1
102
RTVSPost2010Prop32
280
     0
102
RTVSPost2010PropOp32
 70
     1
102
RTVSPost2010Prop33
280
     0
102
RTVSPost2010PropOp33
 70
     1
102
RTVSPost2010Prop34
280
     0
102
RTVSPost2010PropOp34
 70
     1
102
RTVSPost2010Prop35
280
     0
102
RTVSPost2010PropOp35
 70
     1
102
RTVSPost2010Prop36
280
     0
102
RTVSPost2010PropOp36
 70
     1
102
RTVSPost2010Prop37
 90
       50
102
RTVSPost2010PropOp37
 70
     1
102
RTVSPost2010Prop38
140
0.0
102
RTVSPost2010PropOp38
 70
     1
102
RTVSPost2010Prop39
140
1.0
102
RTVSPost2010PropOp39
 70
     1
102
RTVSPost2010Prop40
 90
        0
102
RTVSPost2010PropOp40
 70
     1
102
RTVSPost2010Prop41ColorIndex
 90
       18
102
RTVSPost2010Prop41ColorRGB
 90
        0
102
RTVSPost2010PropOp41
 70
     1
102
RTVSPost2010Prop42
 90
       50
102
RTVSPost2010PropOp42
 70
     1
102
RTVSPost2010Prop43
 90
        3
102
RTVSPost2010PropOp43
 70
     1
102
RTVSPost2010Prop44ColorIndex
 90
        5
102
RTVSPost2010Prop44ColorRGB
 90
      255
102
RTVSPost2010PropOp44
 70
     1
102
RTVSPost2010Prop45
280
     0
102
RTVSPost2010PropOp45
 70
     1
102
RTVSPost2010Prop46
 90
       50
102
RTVSPost2010PropOp46
 70
     1
102
RTVSPost2010Prop47
 90
       50
102
RTVSPost2010PropOp47
 70
     1
102
RTVSPost2010Prop48
 90
       50
102
RTVSPost2010PropOp48
 70
     1
102
RTVSPost2010Prop49
280
     0
102
RTVSPost2010PropOp49
 70
     1
102
RTVSPost2010Prop50
 90
       50
102
RTVSPost2010PropOp50
 70
     1
102
RTVSPost2010Prop51ColorIndex
 90
      256
102
RTVSPost2010Prop51ColorRGB
 90
-16777216
102
RTVSPost2010PropOp51
 70
     0
102
RTVSPost2010Prop52
140
1.0
102
RTVSPost2010PropOp52
 70
     0
102
RTVSPost2010Prop53
 90
        2
102
RTVSPost2010PropOp53
 70
     1
102
RTVSPost2010Prop54
  1
strokes_ogs.tif
102
RTVSPost2010PropOp54
 70
     1
102
RTVSPost2010Prop55
280
     0
102
RTVSPost2010PropOp55
 70
     1
102
RTVSPost2010Prop56
140
1.0
102
RTVSPost2010PropOp56
 70
     1
102
RTVSPost2010Prop57
140
1.0
102
RTVSPost2010PropOp57
 70
     1
  0
XRECORD
  5
33B
102
{ACAD_REACTORS
330
33A
102
}
330
33A
100
AcDbXrecord
280
     1
102
RTVSPropertyOp0
 70
     1
102
RTVSPropertyOp1
 70
     1
102
RTVSPropertyOp2
 70
     1
102
RTVSPropertyOp3
 70
     1
102
RTVSPropertyOp4
 70
     1
102
RTVSPropertyOp5
 70
     1
102
RTVSPropertyOp6
 70
     1
102
RTVSPropertyOp7
 70
     1
102
RTVSPropertyOp8
 70
     1
102
RTVSPropertyOp9
 70
     1
102
RTVSPropertyOp10
 70
     1
102
RTVSPropertyOp11
 70
     1
102
RTVSPropertyOp12
 70
     1
102
RTVSPropertyOp13
 70
     1
102
RTVSPropertyOp14
 70
     1
102
RTVSPropertyOp15
 70
     1
102
RTVSPropertyOp16
 70
     1
102
RTVSPropertyOp17
 70
     1
102
RTVSPropertyOp18
 70
     1
102
RTVSPropertyOp19
 70
     1
102
RTVSPropertyOp20
 70
     1
102
RTVSPropertyOp21
 70
     1
102
RTVSPropertyOp22
 70
     1
102
RTVSPropertyOp23
 70
     1
102
RTVSPropertyOp24
 70
     1
102
RTVSPropertyOp25
 70
     1
102
RTVSPropertyOp26
 70
     1
102
RTVSPropertyOp27
 70
     1
102
RTVSPropertyOp28
 70
     1
102
RTVSPropertyOp29
 70
     1
102
RTVSPropertyOp30
 70
     1
102
RTVSPropertyOp31
 70
     1
102
RTVSPropertyOp32
 70
     1
102
RTVSPropertyOp33
 70
     1
102
RTVSPropertyOp34
 70
     1
102
RTVSPropertyOp35
 70
     1
102
RTVSPropertyOp36
 70
     1
102
RTVSPropertyOp37
 70
     1
102
RTVSPropertyOp38
 70
     1
102
RTVSPropertyOp39
 70
     1
102
RTVSPropertyOp40
 70
     1
102
RTVSPropertyOp41
 70
     1
102
RTVSPropertyOp42
 70
     1
102
RTVSPropertyOp43
 70
     1
102
RTVSPropertyOp44
 70
     1
102
RTVSPropertyOp45
 70
     1
102
RTVSPropertyOp46
 70
     1
102
RTVSPropertyOp47
 70
     1
102
RTVSPropertyOp48
 70
     1
102
RTVSPropertyOp49
 70
     1
102
RTVSPropertyOp50
 70
     1
102
RTVSPropertyOp51
 70
     0
102
RTVSPropertyOp52
 70
     0
102
RTVSPropertyOp53
 70
     1
102
RTVSPropertyOp54
 70
     1
102
RTVSPropertyOp55
 70
     1
102
RTVSPropertyOp56
 70
     1
102
RTVSPropertyOp57
 70
     1
102
RTVSPost2010Prop28
280
     0
102
RTVSPost2010PropOp28
 70
     1
102
RTVSPost2010Prop29
280
     1
102
RTVSPost2010PropOp29
 70
     1
102
RTVSPost2010Prop30
280
     1
102
RTVSPost2010PropOp30
 70
     1
102
RTVSPost2010Prop31
280
     0
102
RTVSPost2010PropOp31
 70
     1
102
RTVSPost2010Prop32
280
     0
102
RTVSPost2010PropOp32
 70
     1
102
RTVSPost2010Prop33
280
     0
102
RTVSPost2010PropOp33
 70
     1
102
RTVSPost2010Prop34
280
     0
102
RTVSPost2010PropOp34
 70
     1
102
RTVSPost2010Prop35
280
     0
102
RTVSPost2010PropOp35
 70
     1
102
RTVSPost2010Prop36
280
     0
102
RTVSPost2010PropOp36
 70
     1
102
RTVSPost2010Prop37
 90
       50
102
RTVSPost2010PropOp37
 70
     1
102
RTVSPost2010Prop38
140
0.0
102
RTVSPost2010PropOp38
 70
     1
102
RTVSPost2010Prop39
140
1.0
102
RTVSPost2010PropOp39
 70
     1
102
RTVSPost2010Prop40
 90
        0
102
RTVSPost2010PropOp40
 70
     1
102
RTVSPost2010Prop41ColorIndex
 90
       18
102
RTVSPost2010Prop41ColorRGB
 90
        0
102
RTVSPost2010PropOp41
 70
     1
102
RTVSPost2010Prop42
 90
       50
102
RTVSPost2010PropOp42
 70
     1
102
RTVSPost2010Prop43
 90
        3
102
RTVSPost2010PropOp43
 70
     1
102
RTVSPost2010Prop44ColorIndex
 90
        5
102
RTVSPost2010Prop44ColorRGB
 90
      255
102
RTVSPost2010PropOp44
 70
     1
102
RTVSPost2010Prop45
280
     0
102
RTVSPost2010PropOp45
 70
     1
102
RTVSPost2010Prop46
 90
       50
102
RTVSPost2010PropOp46
 70
     1
102
RTVSPost2010Prop47
 90
       50
102
RTVSPost2010PropOp47
 70
     1
102
RTVSPost2010Prop48
 90
       50
102
RTVSPost2010PropOp48
 70
     1
102
RTVSPost2010Prop49
280
     0
102
RTVSPost2010PropOp49
 70
     1
102
RTVSPost2010Prop50
 90
       50
102
RTVSPost2010PropOp50
 70
     1
102
RTVSPost2010Prop51ColorIndex
 90
      256
102
RTVSPost2010Prop51ColorRGB
 90
-16777216
102
RTVSPost2010PropOp51
 70
     0
102
RTVSPost2010Prop52
140
1.0
102
RTVSPost2010PropOp52
 70
     0
102
RTVSPost2010Prop53
 90
        2
102
RTVSPost2010PropOp53
 70
     1
102
RTVSPost2010Prop54
  1
strokes_ogs.tif
102
RTVSPost2010PropOp54
 70
     1
102
RTVSPost2010Prop55
280
     0
102
RTVSPost2010PropOp55
 70
     1
102
RTVSPost2010Prop56
140
1.0
102
RTVSPost2010PropOp56
 70
     1
102
RTVSPost2010Prop57
140
1.0
102
RTVSPost2010PropOp57
 70
     1
  0
XRECORD
  5
335
102
{ACAD_REACTORS
330
334
102
}
330
334
100
AcDbXrecord
280
     1
102
RTVSPropertyOp0
 70
     1
102
RTVSPropertyOp1
 70
     1
102
RTVSPropertyOp2
 70
     1
102
RTVSPropertyOp3
 70
     1
102
RTVSPropertyOp4
 70
     1
102
RTVSPropertyOp5
 70
     1
102
RTVSPropertyOp6
 70
     1
102
RTVSPropertyOp7
 70
     1
102
RTVSPropertyOp8
 70
     1
102
RTVSPropertyOp9
 70
     1
102
RTVSPropertyOp10
 70
     1
102
RTVSPropertyOp11
 70
     1
102
RTVSPropertyOp12
 70
     1
102
RTVSPropertyOp13
 70
     1
102
RTVSPropertyOp14
 70
     1
102
RTVSPropertyOp15
 70
     1
102
RTVSPropertyOp16
 70
     1
102
RTVSPropertyOp17
 70
     1
102
RTVSPropertyOp18
 70
     1
102
RTVSPropertyOp19
 70
     1
102
RTVSPropertyOp20
 70
     1
102
RTVSPropertyOp21
 70
     1
102
RTVSPropertyOp22
 70
     1
102
RTVSPropertyOp23
 70
     1
102
RTVSPropertyOp24
 70
     1
102
RTVSPropertyOp25
 70
     1
102
RTVSPropertyOp26
 70
     1
102
RTVSPropertyOp27
 70
     1
102
RTVSPropertyOp28
 70
     1
102
RTVSPropertyOp29
 70
     1
102
RTVSPropertyOp30
 70
     1
102
RTVSPropertyOp31
 70
     1
102
RTVSPropertyOp32
 70
     1
102
RTVSPropertyOp33
 70
     1
102
RTVSPropertyOp34
 70
     1
102
RTVSPropertyOp35
 70
     1
102
RTVSPropertyOp36
 70
     1
102
RTVSPropertyOp37
 70
     1
102
RTVSPropertyOp38
 70
     1
102
RTVSPropertyOp39
 70
     1
102
RTVSPropertyOp40
 70
     1
102
RTVSPropertyOp41
 70
     1
102
RTVSPropertyOp42
 70
     1
102
RTVSPropertyOp43
 70
     1
102
RTVSPropertyOp44
 70
     1
102
RTVSPropertyOp45
 70
     1
102
RTVSPropertyOp46
 70
     1
102
RTVSPropertyOp47
 70
     1
102
RTVSPropertyOp48
 70
     1
102
RTVSPropertyOp49
 70
     1
102
RTVSPropertyOp50
 70
     1
102
RTVSPropertyOp51
 70
     0
102
RTVSPropertyOp52
 70
     0
102
RTVSPropertyOp53
 70
     1
102
RTVSPropertyOp54
 70
     1
102
RTVSPropertyOp55
 70
     1
102
RTVSPropertyOp56
 70
     1
102
RTVSPropertyOp57
 70
     1
102
RTVSPost2010Prop28
280
     0
102
RTVSPost2010PropOp28
 70
     1
102
RTVSPost2010Prop29
280
     1
102
RTVSPost2010PropOp29
 70
     1
102
RTVSPost2010Prop30
280
     1
102
RTVSPost2010PropOp30
 70
     1
102
RTVSPost2010Prop31
280
     0
102
RTVSPost2010PropOp31
 70
     1
102
RTVSPost2010Prop32
280
     0
102
RTVSPost2010PropOp32
 70
     1
102
RTVSPost2010Prop33
280
     0
102
RTVSPost2010PropOp33
 70
     1
102
RTVSPost2010Prop34
280
     0
102
RTVSPost2010PropOp34
 70
     1
102
RTVSPost2010Prop35
280
     0
102
RTVSPost2010PropOp35
 70
     1
102
RTVSPost2010Prop36
280
     0
102
RTVSPost2010PropOp36
 70
     1
102
RTVSPost2010Prop37
 90
       50
102
RTVSPost2010PropOp37
 70
     1
102
RTVSPost2010Prop38
140
0.0
102
RTVSPost2010PropOp38
 70
     1
102
RTVSPost2010Prop39
140
1.0
102
RTVSPost2010PropOp39
 70
     1
102
RTVSPost2010Prop40
 90
        0
102
RTVSPost2010PropOp40
 70
     1
102
RTVSPost2010Prop41ColorIndex
 90
       18
102
RTVSPost2010Prop41ColorRGB
 90
        0
102
RTVSPost2010PropOp41
 70
     1
102
RTVSPost2010Prop42
 90
       50
102
RTVSPost2010PropOp42
 70
     1
102
RTVSPost2010Prop43
 90
        3
102
RTVSPost2010PropOp43
 70
     1
102
RTVSPost2010Prop44ColorIndex
 90
        5
102
RTVSPost2010Prop44ColorRGB
 90
      255
102
RTVSPost2010PropOp44
 70
     1
102
RTVSPost2010Prop45
280
     0
102
RTVSPost2010PropOp45
 70
     1
102
RTVSPost2010Prop46
 90
       50
102
RTVSPost2010PropOp46
 70
     1
102
RTVSPost2010Prop47
 90
       50
102
RTVSPost2010PropOp47
 70
     1
102
RTVSPost2010Prop48
 90
       50
102
RTVSPost2010PropOp48
 70
     1
102
RTVSPost2010Prop49
280
     0
102
RTVSPost2010PropOp49
 70
     1
102
RTVSPost2010Prop50
 90
       50
102
RTVSPost2010PropOp50
 70
     1
102
RTVSPost2010Prop51ColorIndex
 90
      256
102
RTVSPost2010Prop51ColorRGB
 90
-16777216
102
RTVSPost2010PropOp51
 70
     0
102
RTVSPost2010Prop52
140
1.0
102
RTVSPost2010PropOp52
 70
     0
102
RTVSPost2010Prop53
 90
        2
102
RTVSPost2010PropOp53
 70
     1
102
RTVSPost2010Prop54
  1
strokes_ogs.tif
102
RTVSPost2010PropOp54
 70
     1
102
RTVSPost2010Prop55
280
     0
102
RTVSPost2010PropOp55
 70
     1
102
RTVSPost2010Prop56
140
1.0
102
RTVSPost2010PropOp56
 70
     1
102
RTVSPost2010Prop57
140
1.0
102
RTVSPost2010PropOp57
 70
     1
  0
XRECORD
  5
337
102
{ACAD_REACTORS
330
336
102
}
330
336
100
AcDbXrecord
280
     1
102
RTVSPropertyOp0
 70
     1
102
RTVSPropertyOp1
 70
     1
102
RTVSPropertyOp2
 70
     1
102
RTVSPropertyOp3
 70
     1
102
RTVSPropertyOp4
 70
     1
102
RTVSPropertyOp5
 70
     1
102
RTVSPropertyOp6
 70
     1
102
RTVSPropertyOp7
 70
     1
102
RTVSPropertyOp8
 70
     1
102
RTVSPropertyOp9
 70
     1
102
RTVSPropertyOp10
 70
     1
102
RTVSPropertyOp11
 70
     1
102
RTVSPropertyOp12
 70
     1
102
RTVSPropertyOp13
 70
     1
102
RTVSPropertyOp14
 70
     1
102
RTVSPropertyOp15
 70
     1
102
RTVSPropertyOp16
 70
     1
102
RTVSPropertyOp17
 70
     1
102
RTVSPropertyOp18
 70
     1
102
RTVSPropertyOp19
 70
     1
102
RTVSPropertyOp20
 70
     1
102
RTVSPropertyOp21
 70
     1
102
RTVSPropertyOp22
 70
     1
102
RTVSPropertyOp23
 70
     1
102
RTVSPropertyOp24
 70
     1
102
RTVSPropertyOp25
 70
     1
102
RTVSPropertyOp26
 70
     1
102
RTVSPropertyOp27
 70
     1
102
RTVSPropertyOp28
 70
     1
102
RTVSPropertyOp29
 70
     1
102
RTVSPropertyOp30
 70
     1
102
RTVSPropertyOp31
 70
     1
102
RTVSPropertyOp32
 70
     1
102
RTVSPropertyOp33
 70
     1
102
RTVSPropertyOp34
 70
     1
102
RTVSPropertyOp35
 70
     1
102
RTVSPropertyOp36
 70
     1
102
RTVSPropertyOp37
 70
     1
102
RTVSPropertyOp38
 70
     1
102
RTVSPropertyOp39
 70
     1
102
RTVSPropertyOp40
 70
     1
102
RTVSPropertyOp41
 70
     1
102
RTVSPropertyOp42
 70
     1
102
RTVSPropertyOp43
 70
     1
102
RTVSPropertyOp44
 70
     1
102
RTVSPropertyOp45
 70
     1
102
RTVSPropertyOp46
 70
     1
102
RTVSPropertyOp47
 70
     1
102
RTVSPropertyOp48
 70
     1
102
RTVSPropertyOp49
 70
     1
102
RTVSPropertyOp50
 70
     1
102
RTVSPropertyOp51
 70
     0
102
RTVSPropertyOp52
 70
     0
102
RTVSPropertyOp53
 70
     1
102
RTVSPropertyOp54
 70
     1
102
RTVSPropertyOp55
 70
     1
102
RTVSPropertyOp56
 70
     1
102
RTVSPropertyOp57
 70
     1
102
RTVSPost2010Prop28
280
     0
102
RTVSPost2010PropOp28
 70
     1
102
RTVSPost2010Prop29
280
     1
102
RTVSPost2010PropOp29
 70
     1
102
RTVSPost2010Prop30
280
     1
102
RTVSPost2010PropOp30
 70
     1
102
RTVSPost2010Prop31
280
     0
102
RTVSPost2010PropOp31
 70
     1
102
RTVSPost2010Prop32
280
     0
102
RTVSPost2010PropOp32
 70
     1
102
RTVSPost2010Prop33
280
     0
102
RTVSPost2010PropOp33
 70
     1
102
RTVSPost2010Prop34
280
     0
102
RTVSPost2010PropOp34
 70
     1
102
RTVSPost2010Prop35
280
     0
102
RTVSPost2010PropOp35
 70
     1
102
RTVSPost2010Prop36
280
     0
102
RTVSPost2010PropOp36
 70
     1
102
RTVSPost2010Prop37
 90
       50
102
RTVSPost2010PropOp37
 70
     1
102
RTVSPost2010Prop38
140
0.0
102
RTVSPost2010PropOp38
 70
     1
102
RTVSPost2010Prop39
140
1.0
102
RTVSPost2010PropOp39
 70
     1
102
RTVSPost2010Prop40
 90
        0
102
RTVSPost2010PropOp40
 70
     1
102
RTVSPost2010Prop41ColorIndex
 90
       18
102
RTVSPost2010Prop41ColorRGB
 90
        0
102
RTVSPost2010PropOp41
 70
     1
102
RTVSPost2010Prop42
 90
       50
102
RTVSPost2010PropOp42
 70
     1
102
RTVSPost2010Prop43
 90
        3
102
RTVSPost2010PropOp43
 70
     1
102
RTVSPost2010Prop44ColorIndex
 90
        5
102
RTVSPost2010Prop44ColorRGB
 90
      255
102
RTVSPost2010PropOp44
 70
     1
102
RTVSPost2010Prop45
280
     0
102
RTVSPost2010PropOp45
 70
     1
102
RTVSPost2010Prop46
 90
       50
102
RTVSPost2010PropOp46
 70
     1
102
RTVSPost2010Prop47
 90
       50
102
RTVSPost2010PropOp47
 70
     1
102
RTVSPost2010Prop48
 90
       50
102
RTVSPost2010PropOp48
 70
     1
102
RTVSPost2010Prop49
280
     0
102
RTVSPost2010PropOp49
 70
     1
102
RTVSPost2010Prop50
 90
       50
102
RTVSPost2010PropOp50
 70
     1
102
RTVSPost2010Prop51ColorIndex
 90
      256
102
RTVSPost2010Prop51ColorRGB
 90
-16777216
102
RTVSPost2010PropOp51
 70
     0
102
RTVSPost2010Prop52
140
1.0
102
RTVSPost2010PropOp52
 70
     0
102
RTVSPost2010Prop53
 90
        2
102
RTVSPost2010PropOp53
 70
     1
102
RTVSPost2010Prop54
  1
strokes_ogs.tif
102
RTVSPost2010PropOp54
 70
     1
102
RTVSPost2010Prop55
280
     0
102
RTVSPost2010PropOp55
 70
     1
102
RTVSPost2010Prop56
140
1.0
102
RTVSPost2010PropOp56
 70
     1
102
RTVSPost2010Prop57
140
1.0
102
RTVSPost2010PropOp57
 70
     1
  0
XRECORD
  5
327
102
{ACAD_REACTORS
330
326
102
}
330
326
100
AcDbXrecord
280
     1
102
RTVSPropertyOp0
 70
     1
102
RTVSPropertyOp1
 70
     1
102
RTVSPropertyOp2
 70
     1
102
RTVSPropertyOp3
 70
     1
102
RTVSPropertyOp4
 70
     1
102
RTVSPropertyOp5
 70
     1
102
RTVSPropertyOp6
 70
     1
102
RTVSPropertyOp7
 70
     1
102
RTVSPropertyOp8
 70
     1
102
RTVSPropertyOp9
 70
     1
102
RTVSPropertyOp10
 70
     1
102
RTVSPropertyOp11
 70
     1
102
RTVSPropertyOp12
 70
     1
102
RTVSPropertyOp13
 70
     1
102
RTVSPropertyOp14
 70
     1
102
RTVSPropertyOp15
 70
     1
102
RTVSPropertyOp16
 70
     1
102
RTVSPropertyOp17
 70
     1
102
RTVSPropertyOp18
 70
     1
102
RTVSPropertyOp19
 70
     1
102
RTVSPropertyOp20
 70
     1
102
RTVSPropertyOp21
 70
     1
102
RTVSPropertyOp22
 70
     1
102
RTVSPropertyOp23
 70
     1
102
RTVSPropertyOp24
 70
     1
102
RTVSPropertyOp25
 70
     1
102
RTVSPropertyOp26
 70
     1
102
RTVSPropertyOp27
 70
     1
102
RTVSPropertyOp28
 70
     1
102
RTVSPropertyOp29
 70
     1
102
RTVSPropertyOp30
 70
     1
102
RTVSPropertyOp31
 70
     1
102
RTVSPropertyOp32
 70
     1
102
RTVSPropertyOp33
 70
     1
102
RTVSPropertyOp34
 70
     1
102
RTVSPropertyOp35
 70
     1
102
RTVSPropertyOp36
 70
     1
102
RTVSPropertyOp37
 70
     1
102
RTVSPropertyOp38
 70
     1
102
RTVSPropertyOp39
 70
     1
102
RTVSPropertyOp40
 70
     1
102
RTVSPropertyOp41
 70
     1
102
RTVSPropertyOp42
 70
     1
102
RTVSPropertyOp43
 70
     1
102
RTVSPropertyOp44
 70
     1
102
RTVSPropertyOp45
 70
     1
102
RTVSPropertyOp46
 70
     1
102
RTVSPropertyOp47
 70
     1
102
RTVSPropertyOp48
 70
     1
102
RTVSPropertyOp49
 70
     1
102
RTVSPropertyOp50
 70
     1
102
RTVSPropertyOp51
 70
     0
102
RTVSPropertyOp52
 70
     0
102
RTVSPropertyOp53
 70
     1
102
RTVSPropertyOp54
 70
     1
102
RTVSPropertyOp55
 70
     1
102
RTVSPropertyOp56
 70
     1
102
RTVSPropertyOp57
 70
     1
102
RTVSPost2010Prop28
280
     0
102
RTVSPost2010PropOp28
 70
     1
102
RTVSPost2010Prop29
280
     1
102
RTVSPost2010PropOp29
 70
     1
102
RTVSPost2010Prop30
280
     1
102
RTVSPost2010PropOp30
 70
     1
102
RTVSPost2010Prop31
280
     0
102
RTVSPost2010PropOp31
 70
     1
102
RTVSPost2010Prop32
280
     0
102
RTVSPost2010PropOp32
 70
     1
102
RTVSPost2010Prop33
280
     0
102
RTVSPost2010PropOp33
 70
     1
102
RTVSPost2010Prop34
280
     0
102
RTVSPost2010PropOp34
 70
     1
102
RTVSPost2010Prop35
280
     0
102
RTVSPost2010PropOp35
 70
     1
102
RTVSPost2010Prop36
280
     0
102
RTVSPost2010PropOp36
 70
     1
102
RTVSPost2010Prop37
 90
       50
102
RTVSPost2010PropOp37
 70
     1
102
RTVSPost2010Prop38
140
0.0
102
RTVSPost2010PropOp38
 70
     1
102
RTVSPost2010Prop39
140
1.0
102
RTVSPost2010PropOp39
 70
     1
102
RTVSPost2010Prop40
 90
        0
102
RTVSPost2010PropOp40
 70
     1
102
RTVSPost2010Prop41ColorIndex
 90
       18
102
RTVSPost2010Prop41ColorRGB
 90
        0
102
RTVSPost2010PropOp41
 70
     1
102
RTVSPost2010Prop42
 90
       50
102
RTVSPost2010PropOp42
 70
     1
102
RTVSPost2010Prop43
 90
        3
102
RTVSPost2010PropOp43
 70
     1
102
RTVSPost2010Prop44ColorIndex
 90
        5
102
RTVSPost2010Prop44ColorRGB
 90
      255
102
RTVSPost2010PropOp44
 70
     1
102
RTVSPost2010Prop45
280
     0
102
RTVSPost2010PropOp45
 70
     1
102
RTVSPost2010Prop46
 90
       50
102
RTVSPost2010PropOp46
 70
     1
102
RTVSPost2010Prop47
 90
       50
102
RTVSPost2010PropOp47
 70
     1
102
RTVSPost2010Prop48
 90
       50
102
RTVSPost2010PropOp48
 70
     1
102
RTVSPost2010Prop49
280
     0
102
RTVSPost2010PropOp49
 70
     1
102
RTVSPost2010Prop50
 90
       50
102
RTVSPost2010PropOp50
 70
     1
102
RTVSPost2010Prop51ColorIndex
 90
      256
102
RTVSPost2010Prop51ColorRGB
 90
-16777216
102
RTVSPost2010PropOp51
 70
     0
102
RTVSPost2010Prop52
140
1.0
102
RTVSPost2010PropOp52
 70
     0
102
RTVSPost2010Prop53
 90
        2
102
RTVSPost2010PropOp53
 70
     1
102
RTVSPost2010Prop54
  1
strokes_ogs.tif
102
RTVSPost2010PropOp54
 70
     1
102
RTVSPost2010Prop55
280
     0
102
RTVSPost2010PropOp55
 70
     1
102
RTVSPost2010Prop56
140
1.0
102
RTVSPost2010PropOp56
 70
     1
102
RTVSPost2010Prop57
140
1.0
102
RTVSPost2010PropOp57
 70
     1
  0
XRECORD
  5
319
102
{ACAD_REACTORS
330
318
102
}
330
318
100
AcDbXrecord
280
     1
102
RTVSPropertyOp0
 70
     1
102
RTVSPropertyOp1
 70
     1
102
RTVSPropertyOp2
 70
     1
102
RTVSPropertyOp3
 70
     1
102
RTVSPropertyOp4
 70
     1
102
RTVSPropertyOp5
 70
     1
102
RTVSPropertyOp6
 70
     1
102
RTVSPropertyOp7
 70
     1
102
RTVSPropertyOp8
 70
     1
102
RTVSPropertyOp9
 70
     1
102
RTVSPropertyOp10
 70
     1
102
RTVSPropertyOp11
 70
     1
102
RTVSPropertyOp12
 70
     1
102
RTVSPropertyOp13
 70
     1
102
RTVSPropertyOp14
 70
     1
102
RTVSPropertyOp15
 70
     1
102
RTVSPropertyOp16
 70
     1
102
RTVSPropertyOp17
 70
     1
102
RTVSPropertyOp18
 70
     1
102
RTVSPropertyOp19
 70
     1
102
RTVSPropertyOp20
 70
     1
102
RTVSPropertyOp21
 70
     1
102
RTVSPropertyOp22
 70
     1
102
RTVSPropertyOp23
 70
     1
102
RTVSPropertyOp24
 70
     1
102
RTVSPropertyOp25
 70
     1
102
RTVSPropertyOp26
 70
     1
102
RTVSPropertyOp27
 70
     1
102
RTVSPropertyOp28
 70
     1
102
RTVSPropertyOp29
 70
     1
102
RTVSPropertyOp30
 70
     1
102
RTVSPropertyOp31
 70
     1
102
RTVSPropertyOp32
 70
     1
102
RTVSPropertyOp33
 70
     1
102
RTVSPropertyOp34
 70
     1
102
RTVSPropertyOp35
 70
     1
102
RTVSPropertyOp36
 70
     1
102
RTVSPropertyOp37
 70
     1
102
RTVSPropertyOp38
 70
     1
102
RTVSPropertyOp39
 70
     1
102
RTVSPropertyOp40
 70
     1
102
RTVSPropertyOp41
 70
     1
102
RTVSPropertyOp42
 70
     1
102
RTVSPropertyOp43
 70
     1
102
RTVSPropertyOp44
 70
     1
102
RTVSPropertyOp45
 70
     1
102
RTVSPropertyOp46
 70
     1
102
RTVSPropertyOp47
 70
     1
102
RTVSPropertyOp48
 70
     1
102
RTVSPropertyOp49
 70
     1
102
RTVSPropertyOp50
 70
     1
102
RTVSPropertyOp51
 70
     0
102
RTVSPropertyOp52
 70
     0
102
RTVSPropertyOp53
 70
     1
102
RTVSPropertyOp54
 70
     1
102
RTVSPropertyOp55
 70
     1
102
RTVSPropertyOp56
 70
     1
102
RTVSPropertyOp57
 70
     1
102
RTVSPost2010Prop28
280
     0
102
RTVSPost2010PropOp28
 70
     1
102
RTVSPost2010Prop29
280
     1
102
RTVSPost2010PropOp29
 70
     1
102
RTVSPost2010Prop30
280
     1
102
RTVSPost2010PropOp30
 70
     1
102
RTVSPost2010Prop31
280
     0
102
RTVSPost2010PropOp31
 70
     1
102
RTVSPost2010Prop32
280
     0
102
RTVSPost2010PropOp32
 70
     1
102
RTVSPost2010Prop33
280
     0
102
RTVSPost2010PropOp33
 70
     1
102
RTVSPost2010Prop34
280
     0
102
RTVSPost2010PropOp34
 70
     1
102
RTVSPost2010Prop35
280
     0
102
RTVSPost2010PropOp35
 70
     1
102
RTVSPost2010Prop36
280
     0
102
RTVSPost2010PropOp36
 70
     1
102
RTVSPost2010Prop37
 90
       50
102
RTVSPost2010PropOp37
 70
     1
102
RTVSPost2010Prop38
140
0.0
102
RTVSPost2010PropOp38
 70
     1
102
RTVSPost2010Prop39
140
1.0
102
RTVSPost2010PropOp39
 70
     1
102
RTVSPost2010Prop40
 90
        0
102
RTVSPost2010PropOp40
 70
     1
102
RTVSPost2010Prop41ColorIndex
 90
       18
102
RTVSPost2010Prop41ColorRGB
 90
        0
102
RTVSPost2010PropOp41
 70
     1
102
RTVSPost2010Prop42
 90
       50
102
RTVSPost2010PropOp42
 70
     1
102
RTVSPost2010Prop43
 90
        3
102
RTVSPost2010PropOp43
 70
     1
102
RTVSPost2010Prop44ColorIndex
 90
        5
102
RTVSPost2010Prop44ColorRGB
 90
      255
102
RTVSPost2010PropOp44
 70
     1
102
RTVSPost2010Prop45
280
     0
102
RTVSPost2010PropOp45
 70
     1
102
RTVSPost2010Prop46
 90
       50
102
RTVSPost2010PropOp46
 70
     1
102
RTVSPost2010Prop47
 90
       50
102
RTVSPost2010PropOp47
 70
     1
102
RTVSPost2010Prop48
 90
       50
102
RTVSPost2010PropOp48
 70
     1
102
RTVSPost2010Prop49
280
     0
102
RTVSPost2010PropOp49
 70
     1
102
RTVSPost2010Prop50
 90
       50
102
RTVSPost2010PropOp50
 70
     1
102
RTVSPost2010Prop51ColorIndex
 90
      256
102
RTVSPost2010Prop51ColorRGB
 90
-16777216
102
RTVSPost2010PropOp51
 70
     0
102
RTVSPost2010Prop52
140
1.0
102
RTVSPost2010PropOp52
 70
     0
102
RTVSPost2010Prop53
 90
        2
102
RTVSPost2010PropOp53
 70
     1
102
RTVSPost2010Prop54
  1
strokes_ogs.tif
102
RTVSPost2010PropOp54
 70
     1
102
RTVSPost2010Prop55
280
     0
102
RTVSPost2010PropOp55
 70
     1
102
RTVSPost2010Prop56
140
1.0
102
RTVSPost2010PropOp56
 70
     1
102
RTVSPost2010Prop57
140
1.0
102
RTVSPost2010PropOp57
 70
     1
  0
XRECORD
  5
339
102
{ACAD_REACTORS
330
338
102
}
330
338
100
AcDbXrecord
280
     1
102
RTVSPropertyOp0
 70
     1
102
RTVSPropertyOp1
 70
     1
102
RTVSPropertyOp2
 70
     1
102
RTVSPropertyOp3
 70
     1
102
RTVSPropertyOp4
 70
     1
102
RTVSPropertyOp5
 70
     1
102
RTVSPropertyOp6
 70
     1
102
RTVSPropertyOp7
 70
     1
102
RTVSPropertyOp8
 70
     1
102
RTVSPropertyOp9
 70
     1
102
RTVSPropertyOp10
 70
     1
102
RTVSPropertyOp11
 70
     1
102
RTVSPropertyOp12
 70
     1
102
RTVSPropertyOp13
 70
     1
102
RTVSPropertyOp14
 70
     1
102
RTVSPropertyOp15
 70
     1
102
RTVSPropertyOp16
 70
     1
102
RTVSPropertyOp17
 70
     1
102
RTVSPropertyOp18
 70
     1
102
RTVSPropertyOp19
 70
     1
102
RTVSPropertyOp20
 70
     1
102
RTVSPropertyOp21
 70
     1
102
RTVSPropertyOp22
 70
     1
102
RTVSPropertyOp23
 70
     1
102
RTVSPropertyOp24
 70
     1
102
RTVSPropertyOp25
 70
     1
102
RTVSPropertyOp26
 70
     1
102
RTVSPropertyOp27
 70
     1
102
RTVSPropertyOp28
 70
     1
102
RTVSPropertyOp29
 70
     1
102
RTVSPropertyOp30
 70
     1
102
RTVSPropertyOp31
 70
     1
102
RTVSPropertyOp32
 70
     1
102
RTVSPropertyOp33
 70
     1
102
RTVSPropertyOp34
 70
     1
102
RTVSPropertyOp35
 70
     1
102
RTVSPropertyOp36
 70
     1
102
RTVSPropertyOp37
 70
     1
102
RTVSPropertyOp38
 70
     1
102
RTVSPropertyOp39
 70
     1
102
RTVSPropertyOp40
 70
     1
102
RTVSPropertyOp41
 70
     1
102
RTVSPropertyOp42
 70
     1
102
RTVSPropertyOp43
 70
     1
102
RTVSPropertyOp44
 70
     1
102
RTVSPropertyOp45
 70
     1
102
RTVSPropertyOp46
 70
     1
102
RTVSPropertyOp47
 70
     1
102
RTVSPropertyOp48
 70
     1
102
RTVSPropertyOp49
 70
     1
102
RTVSPropertyOp50
 70
     1
102
RTVSPropertyOp51
 70
     0
102
RTVSPropertyOp52
 70
     0
102
RTVSPropertyOp53
 70
     1
102
RTVSPropertyOp54
 70
     1
102
RTVSPropertyOp55
 70
     1
102
RTVSPropertyOp56
 70
     1
102
RTVSPropertyOp57
 70
     1
102
RTVSPost2010Prop28
280
     0
102
RTVSPost2010PropOp28
 70
     1
102
RTVSPost2010Prop29
280
     1
102
RTVSPost2010PropOp29
 70
     1
102
RTVSPost2010Prop30
280
     1
102
RTVSPost2010PropOp30
 70
     1
102
RTVSPost2010Prop31
280
     0
102
RTVSPost2010PropOp31
 70
     1
102
RTVSPost2010Prop32
280
     0
102
RTVSPost2010PropOp32
 70
     1
102
RTVSPost2010Prop33
280
     0
102
RTVSPost2010PropOp33
 70
     1
102
RTVSPost2010Prop34
280
     0
102
RTVSPost2010PropOp34
 70
     1
102
RTVSPost2010Prop35
280
     0
102
RTVSPost2010PropOp35
 70
     1
102
RTVSPost2010Prop36
280
     0
102
RTVSPost2010PropOp36
 70
     1
102
RTVSPost2010Prop37
 90
       50
102
RTVSPost2010PropOp37
 70
     1
102
RTVSPost2010Prop38
140
0.0
102
RTVSPost2010PropOp38
 70
     1
102
RTVSPost2010Prop39
140
1.0
102
RTVSPost2010PropOp39
 70
     1
102
RTVSPost2010Prop40
 90
        0
102
RTVSPost2010PropOp40
 70
     1
102
RTVSPost2010Prop41ColorIndex
 90
       18
102
RTVSPost2010Prop41ColorRGB
 90
        0
102
RTVSPost2010PropOp41
 70
     1
102
RTVSPost2010Prop42
 90
       50
102
RTVSPost2010PropOp42
 70
     1
102
RTVSPost2010Prop43
 90
        3
102
RTVSPost2010PropOp43
 70
     1
102
RTVSPost2010Prop44ColorIndex
 90
        5
102
RTVSPost2010Prop44ColorRGB
 90
      255
102
RTVSPost2010PropOp44
 70
     1
102
RTVSPost2010Prop45
280
     0
102
RTVSPost2010PropOp45
 70
     1
102
RTVSPost2010Prop46
 90
       50
102
RTVSPost2010PropOp46
 70
     1
102
RTVSPost2010Prop47
 90
       50
102
RTVSPost2010PropOp47
 70
     1
102
RTVSPost2010Prop48
 90
       50
102
RTVSPost2010PropOp48
 70
     1
102
RTVSPost2010Prop49
280
     0
102
RTVSPost2010PropOp49
 70
     1
102
RTVSPost2010Prop50
 90
       50
102
RTVSPost2010PropOp50
 70
     1
102
RTVSPost2010Prop51ColorIndex
 90
      256
102
RTVSPost2010Prop51ColorRGB
 90
-16777216
102
RTVSPost2010PropOp51
 70
     0
102
RTVSPost2010Prop52
140
1.0
102
RTVSPost2010PropOp52
 70
     0
102
RTVSPost2010Prop53
 90
        2
102
RTVSPost2010PropOp53
 70
     1
102
RTVSPost2010Prop54
  1
strokes_ogs.tif
102
RTVSPost2010PropOp54
 70
     1
102
RTVSPost2010Prop55
280
     0
102
RTVSPost2010PropOp55
 70
     1
102
RTVSPost2010Prop56
140
1.0
102
RTVSPost2010PropOp56
 70
     1
102
RTVSPost2010Prop57
140
1.0
102
RTVSPost2010PropOp57
 70
     1
  0
ENDSEC
  0
EOF
